Song name
# A B C D E F G H I J K L M N O P Q R S T U V W X Y Z

Kabobo - Akong Kalipay tab

Band/Artist: Kabobo
Song: Akong Kalipay
Tabbed by: L.G.T

Intro: G-C9-; 2x
   G                C9
e|-----3---2p3p2----------3------3---|
B|-------3-------3------3----3-------|
G|---0----------------0--------0-----| (2x)
D|-----------------------------------|
A|------------------3----------------|
E|-3---------------------------------|

Verse 1:
G                   C9
Sa mga adlaw nga nagkuyog kitang duha
G                   C9
Maklaro pa ang mga luhang nagpabiling ga uga
G               C9
Oh kasayang sa imung kaanyag day 
G                 C9
Sa kasing kasing mo pwede ba akoy mo ayo

Chorus:
G    C9              Em         D
Abi kog imposeble mahigugma sa babay
       C
Nga lima nay uyab ang nilabay
G    C9                Em          D          C - Csus
Abi kog imposeble makalimtan atong karaan sus day 
        G      C9
Akong kalipay...
        G      C9
Akong kalipay...

Verse 2:
G                C9
Mo tambling mo ligid mo kaon ug kayo
G              C9
Para lang makalimtan ang sakit ning dughan
G               C9
Oh pasagdi ko kanimo makadistorbo
G                  C9
Sa kasing kasing mo pwede ba akoy mo ayo

(Repeat chorus)

Chords Used:
    G   C   C9  Csus  Em   D
e|--3---0---3----3----0----2--|
B|--3---1---3----1----0----3--|
G|--0---0---0----0----0----2--| 
D|--0---2---2----2----2----0--|
A|--2---3---3----3----2-------|
E|--3---x---x----x----0-------|

Tap to rate this tab
# A B C D E F G H I J K L M N O P Q R S T U V W X Y Z