Song name
# A B C D E F G H I J K L M N O P Q R S T U V W X Y Z

Kacey Musgraves - Merry Go Round tab

Merry Go Round
ęKacey Musgraves and Mercury Records 2012

Capo IV
*All numbers are actual fret positions and aren't compensated for the capo*
*Open strings ("0") won't be correct without the capo*

Intro(Banjo/Guitar #1):

1st Riff:

E----------------------------|
B--------11--11--------------|
G--11------11--10--10--10h11-|
D--0-------------11--11------|
A----------------------------|
E----------------------------|


Second Riff: x3

E--------------------------|
B------11--11--------------|
G----11--11--10--10--10h11-|
D--0-----------11--11------|
A--------------------------|
E--------------------------|


Intro(Dulcimer/Guitar #2): x4
E------------------------|
B--11--------9--------7--|
G------------------------|
D------------------------|
A------------------------|
E------------------------|


Listened to the intro many times to make this as accurate as possible--hopefully it's 
right on! Please let me know if you find any corrections--always up for improvement! I'm 
still working on the rest of the song, should have it up in several weeks!
Tap to rate this tab
# A B C D E F G H I J K L M N O P Q R S T U V W X Y Z