Song name
# A B C D E F G H I J K L M N O P Q R S T U V W X Y Z

Kaddisfly - Akira tab

Kaddisfly – Akira (only the outro of the song)

The first part it’s not right

1:39 – 1:50 & 2:02 – 2:12       (Slightly different at the end)
|---------0--1----------0-1--|  |-------0------------0--|
|----------------------------|  |-----------------------|
|---------2-----------2------|  |---------2--------2----|
|--------------------2-------|  |-------2--------2------|
|-----2------------2---------|  |----2---------2--------|
|--0------------0------------|  |--0---------0----------|


1:50 – 1:55 & 2:12 – 2:17
-----------0-----------0---------------0------------0--------|
--------------3-----------3---------------3------------3-----|
-----------0-----------0---------------0------------0--------|
-------3------------3---------------3-----------3------------|
--1--------------1-----------1-1------------1-------------1--|
-------------------------------------------------------------|

1:56 – 2:00
----------0------------0-------------0-------0-|
-------------2------------2-------------2----2-|
----------0--------------------------0-------0-|
------2------------2-------------2-----------2-|
--0-------------0------------0---------------0-|
-----------------------------------------------|

2:18 - end
----------0------------0--------------3--3--3--|
-------------2------------2--------------------|
----------0---------------------------0--0--0--|
------2------------2--------------2------------|
--0-------------0------------0-0---------------|
-----------------------------------------------|
Tap to rate this tab
 
# A B C D E F G H I J K L M N O P Q R S T U V W X Y Z