Guitaretab - guitar tabs
Song name
# A B C D E F G H I J K L M N O P Q R S T U V W X Y Z

Kaddisfly - Harbor tab

Kaddisfly
Set Sail the Prairie
Harbor
Drop Db
Delay
Tabbed by recklesscognition

Intro
----------------------------------------------------------------------|
--------------------------------------------------18/20---------------|
-----------17/19-14-17---------------17/19-14-17p---------------------|
0-15-17-15-------------17--0-15-17-15---------------------------------|
----------------------------------------------------------------------|
----------------------------------------------------------------------|

----------------------------------------------------------------------|
----------------------------------------------------------------------|
-----------17/19-14-17---------------17/19-14-17-14//-----------------|
0-15-17-15-------------17--0-15-17-15---------------------------------|
----------------------------------------------------------------------|
----------------------------------------------------------------------|

---------------------------------------------------------------------|
------------13-------------------------------------------------------|
---------12---12-14--------------------------------------------------|
12-12-15----------------12-12-15-12-15-12\10-12-10\7-----------------|
---------------------------------------------------------------------|
---------------------------------------------------------------------|

---------------------------------------------------------------------|
---------------------------------------------------------------------|
---------------------------------------------------------------------|
0-15-17-15--17/19--14-17--17-15-17-15~~~~----------------------------|
---------------------------------------------------------------------|
---------------------------------------------------------------------|

---------------------------------------------------------------------------|
---------------------------------------------------------------------------|
--------17-----------------------------------------------------------------|
15p0-------14--------------------------------------------------------------|
-----15-------15-----------------------------------------------------------|
---------------------------------------------------------------------------|
[ Tab from: http://www.guitaretab.com/k/kaddisfly/83745.html ]
---------------------------------------------------------------------------|
--------------17------------17---15----------------------------------------|
--------17-14~-----17p14-14------------------------------------------------|
15p0-----------------------------------------------------------------------|
-----15--------------------------------------------------------------------|
------------------------------15-------------------------------------------|

---------------------------------------------------------------------------------|
---------------------------------------------------------------------------------|
---------------12--------------------9-----------------12------------------9-----|
10p0----10p0----------10p0----10p0--------10p0-----10p0-------10p0-----10p0------|
-----12------12------------12------12----------12------------------12------------|
---------------------------------------------------------------------------------|

bridge
-----------------------------------------------------------------------|
-----------------------------------------------------------------------|
-----------------12----------------------------------------------------|
10p0-----10p0---------10p0------10pm10pm10-10~-------------------------|
-----12-------12----------12-------------------------------------------|
-----------------------------------------------------------------------|

bridge distorted
-----------------------------------------------------------------------|
-----------------------------------------------------------------------|
10-10-9---9-9-7--5-5-3-5-5-3-------------------------------------------|
10-10-10--5-5-5--3-3-0-3-3-0-------------------------------------------|
-----------------------------------------------------------------------|
-----------------------------------------------------------------------|

ending
--------------------------------------------------------------------|
--------------------------------------------------------------------|
-----------------12-9-------------------12/14-----------------------|
10--10p0---10----------10---10p0---10-------------------------------|
--12-----12---12----------12-----12---12----------------------------|
--------------------------------------------------------------------|

--------------------------------------------------------------------|
--------------------------------------------------------------------|
-----------------12-9-------------------12/14-14~--------------19b--|
10--10p0---10----------10---10p0---10-------------------------------|
--12-----12---12----------12-----12---12----------------------------|
--------------------------------------------------------------------|
Related for Harbor tab
Advertisement will be closed in 10 seconds