Song name
# A B C D E F G H I J K L M N O P Q R S T U V W X Y Z

Kaddisfly - Crimson Solitude tab

Kaddisfly
Buy Our Intention..
Crimson Solitude

Tuning: Standard
Intro:
|-5----|-x--x-x-5-5-x-x-5----|
|-5^6-|-x--x-x-6-5-x-x-5^6---|
|-5^7-|-x--x-x-7-5-x-x-5^7---|
|-5^7-|-x--x-x-7-5-x-x-5^7---|
|-5----|-x--x-x-5-5-x-x-5----|
|------|---------------------|

Main riff:
|-----------------------------------------------------------------|
|---6-----6---6-----6---5-----5---5-----5---8---6---8---6---5---5-|
|-----------------------------------------------------------------|
|-7---7-7---7---7-7---5---5-5---5---5-5---7---7---7---7---7---7---|
|-----------------------------------------------------------------|
|-----------------------------------------------------------------|

Next time up strum it. figure out the strumming pattern yourself:
|---------------|
|-6-5-8-6-8-6-5-|
|-x-x-x-x-x-x-x-|
|-7-5-7-7-7-7-7-|
|---------------|
|---------------|

Chorus: (lead)
|------------------15-15-15--------------------|
|-12^13^12----------------12-13----------------|
|--------------12--------------------12-12-12--|
|----------------------------------------------|
|----------------------------------------------|

Solo/Interlude:
|---------------------------------------------|
|--------10s12-12--------10s12-12-12----------|
|------9-----------------9----------------12--|
|-8s10------------8s10------------------------|
|---------------------------------------------|
|---------------------------------------------|

or
|------------------------------------------|
|--------10s12-12--------10s12-12-12-8-----|
|------9-----------------9-----------------|
|-8s10------------8s10---------------------|
|------------------------------------------|
|------------------------------------------|

|-------------------|
|-------------------|
|-------------------|
|-7-7-7-7--7-7-7-7--|
|-7-7-7-7--7-7-7-7--|
|-5-5-5-5--5-5-5-5--|
Tap to rate this tab
 
# A B C D E F G H I J K L M N O P Q R S T U V W X Y Z