Song name
# A B C D E F G H I J K L M N O P Q R S T U V W X Y Z

Kafkas - Feudalismus tab

Kafkas - Feudalismus

M - Palm Mute
 
Intro/Verse:

e:|---------------------------------------|
B:|---------------------------------------|
G:|--6-6-6--------------------------------|
D:|--6-6-6--6-6-6-6-6--9-9-9--11-14-11-6--|
A:|--4-4-4--6-6-6-6-6--9-9-9--11-14-11-6--|
E:|---------4-4-4-4-4--7-7-7--9--12-9--4--|
     M M    M M M M    M M                          
         
e:|-------------------------------------|
B:|-------------------------------------|
G:|--6-6-6------------------------------|
D:|--6-6-6--6-6-6-6-6--9-9-9--11-11-11--|
A:|--4-4-4--6-6-6-6-6--9-9-9--11-11-11--|
E:|---------4-4-4-4-4--7-7-7---9--9--9--|
     M M    M M M M    

Bridge:

e:|---------------------------------------------|
B:|---------------------------------------------|
G:|--6-6-6-6------------------------------------|
D:|--6-6-6-6--6-6-6-6--14-14-14-14-14-14-14-14--|
A:|--4-4-4-4--6-6-6-6--14-14-14-14-14-14-14-14--|
E:|-----------4-4-4-4--12-12-12-12-12-12-12-12--|

e:|------------------------------------------|
B:|------------------------------------------|
G:|--6-6-6-6---------------------------------|
D:|--6-6-6-6--6-6-6-6--9-9-9-9--11-11-11-11--|
A:|--4-4-4-4--6-6-6-6--9-9-9-9--11-11-11-11--|
E:|-----------4-4-4-4--7-7-7-7--9--9--9--9---|

Chorus:

e:|----------------------------------------|
B:|----------------------------------------|
G:|--11------------9------------------6----|
D:|--11-x8--11-----9-x8--9-----6------6-x8-|
A:|--9------11-x8--7-----9-x8--6-x8---4----|
E:|---------9------------7-----4-----------|

Interlude:

e:|---------------------------------------------|
B:|---------------------------------------------|
G:|---------------------------------------------|
D:|---9--5--7---9--12--10-----------------------|
A:|---9--5--7---9--12--10-----------------------|
E:|---7--3--5---7--10--8------------------------|
      M  M  M   M  M   M

Listen to the Song to get the exact number of strokes


Structure:

Intro
Bridge
Verse
Chorus
Verse
Bridge
Verse
Chorus
Interlude
Chorus

Tabbed by Gez
e-mail: gez.rulez@gmx.at
Tap to rate this tab
 
# A B C D E F G H I J K L M N O P Q R S T U V W X Y Z