Song name
# A B C D E F G H I J K L M N O P Q R S T U V W X Y Z

Kai - It Might Be You tab

first tab posted so there must be at least one mistake

tabbed by: jtc_204 

e|-------------------|--------------------|-----------------7--10/12--|--10----8p7-8p7--5h7-5--|
B|-------------------|-------------8--10--|--7---7h8-----8------------|------------------------|
G|--------------4h5--|--5/7--7--9---------|-----------7---------------|------------------------|
D|--------5h7--------|--------------------|---------------------------|------------------------|
A|---5h7-------------|--------------------|---------------------------|------------------------|
E|-------------------|--------------------|---------------------------|------------------------|



e|---3--2---2h3-------|-----------------------|---------------------|--------------------|
B|--------------------|-------------3--3------|------------3/5--3---|----------3--3------|
G|--------------------|-----------------------|---------------------|--------------------|
D|--------------------|------4h5--------------|------4h5------------|----4h5-------------|
A|--------------------|-----------------------|---------------------|--------------------|
E|--------------------|-----------------------|---------------------|--------------------|



e|-------------------|
B|---5---------------|
G|------5--4--2--0-0-|
D|-------------------|
A|-------------------|
E|-------------------|
Tap to rate this tab
# A B C D E F G H I J K L M N O P Q R S T U V W X Y Z