Guitaretab - guitar tabs
Song name
# A B C D E F G H I J K L M N O P Q R S T U V W X Y Z

Kain - Adam Et Ve tab

Le solo est dificile  faire mes tu peux problement le trouver sur autre site... et ce tab
est 100% mon enseignieur me le apris. enjoy

Riff A


    Bm                          A

E||-------------2--2--2|-----------0-----0-----0-----|
B||-------------3--3--3|-----------2-----2-----2-----|
G||-------------4--4--4|-----------2-----2-----2-----|
D||-------------4------|-----------2-----2-----2-----|
A||2-------2-----------|0-----0----------------------|
E||--------------------|-----------------------------|

	D

E||-------------2--2--2|-----------------------------|
B||-------------3--3--3-|----------------------------|
G||-------------2- 2--2-|0---------------------------|
D||0-------0-----------|------4---------2-----0------|
A||--------------------|-----------------------------|
E||--------------------|-----------------------------|

    Bm                          A

E||-------------2--2--2|-----------0-----0-----0-----|
B||-------------3--3--3|-----------2-----2-----2-----|
G||-------------4--4--4|-----------2-----2-----2-----|
D||-------------4------|-----------2-----2-----2-----|
A||2-------2-----------|0-----0----------------------|
E||--------------------|-----------------------------|

	    liaison
       ------------------------------------------------|
E||--------------------|-------------------------------|
B||--------2-----------|-------------------------------|
G||--------2--------2--|0------------------------------|
D||0-------2-----4-----|--------4-------2-----0--------|
A||--------------------|-------------------------------|
E||--------------------|-------------------------------|

REFRAIN (Riff B)
[ Tab from: http://www.guitaretab.com/k/kain/80701.html ]
	G		Bm
E||3-------3-----------|2------2---------------------|
B||0-------0-----------|3------3---------------------|
G||0-------0-----------|4------4---------------------|
D||0-------0-----------|4------4---------------------|
A||2-------2-----------|2------2---------------------|
E||3-------3-----------|-----------------------------|

	A		D	       Dsus  D
E||0-------0-----------|2------2-------3-----3-------|
B||2-------2-----------|3------3-------3-----3-------|
G||2-------2-----------|2------2-------2-----2-------|
D||2-------2-----------|0------0-------0-----0-------|
A||0-------0-----------|-----------------------------|
E||--------------------|-----------------------------|


(Riff B2 (B avec liaison)
E||3-------3-----------|2------2---------------------|
B||0-------0-----------|3------3---------------------|
G||0-------0-----------|4------4---------------------|
D||0-------0-----------|4------4---------------------|
A||2-------2-----------|2------2---------------------|
E||3-------3-----------|-----------------------------|

	A
E||0-------0-----------|
B||2-------2-----------|
G||2-------2-----------|
D||2-------2-----------|
A||0-------0-----------|
E||--------------------|

E||--------------------|-----------------------------|
B||--------2-----------|-----------------------------|
G||--------2--------2--|0----------------------------|
D||0-------2-----4-----|--------4-------2-----0------|
A||--------------------|-----------------------------|
E||--------------------|-----------------------------|

Riff C


E||2-------2-----------|-----------------------------|
B||3-------3-----------|4------4---------------------|
G||4-------4-----------|4------4---------------------|
D||4-------4-----------|4------4---------------------|
A||2-------2-----------|4------4---------------------|
E||--------------------|2------2---------------------|

E||4-------4-----------|-----------------------------|
B||5-------5-----------|4-------4--------------------|
G||6-------6-----------|4-------4--------------------|
D||6-------6-----------|4-------4--------------------|
A||4-------4-----------|4-------4--------------------|
E||4-------4-----------|2-------2--------------------|
Related for Adam Et Ve tab