Song name
# A B C D E F G H I J K L M N O P Q R S T U V W X Y Z

Kaiser Chiefs - Evrey Day I Love You Less And Less tab

intro
e ---------------------------------------------------|
b ---------------------------------------------------|
g ---------------------------------------------------|
d ----------------6--65--53--3-----------------------|
a 3---6-5-3---6-5-------------6-5-3 leads to verse 1-|
e ---------------------------------------------------|

verse x4
e ------------------------------------------------|
b ------------------------------------------------|
g ------------------------------------------------|
d ------------------------------------------------|
a 3-------1---------------------------------------|
e ------------1-----------------------------------|

bridge
e ------------------------------------------------|
b ------------------------------------------------|
g ------------------------------------------------|
d ------------------------------------------------|
a 3---2---1---------------------------------------|
e ------------1-----------------------------------|

x2, second time add- a 3333333333333333-|
                     e 1111111111111111-|


then chorus intro, verse1, bridge, chorus, verse2, bridge, chorus, funny bit, break, 
bridge, chorus, funny bit. soz dont no anymore tabs for it!!
Tap to rate this tab
 
# A B C D E F G H I J K L M N O P Q R S T U V W X Y Z