Kaiser Chiefs - Problem Solve tab

I found this part from another forum. This is a song from their lastest CD.
--------------------------------------------------------------------------------
Problem Solved (guitar)

Organ Intro

E------------------------|
B------------------------|
G------------------------|
D------4---------4--4----|
A----6---------6---------|
E-6------7--6------------|

Main Riff

E--------------------------------------------|
B--------------------------------------------|
G----------------------6--6-6-6--------------|
D------------8--8-8--4--4-4-4----------------|
A-8--8-8---6--6-6---------------9--9-9-------|
E-6--6-6--------------------------7--7-7-----|

"I wish i was..."

E---------------------------------------------------------------|
B---------------------------------------------------------------|
G---------------------------------------------------------------|
D---------------------------------------------------------------|
A----------------4-4-4-6-6-6-6-6-6-4-4-4-6-6-6------------------|
E-6-6-6-4-4-4---------------------------------------7-7-7-------|

Solo

E-----------------------------------------------------------------------|
B-----------------------------------------------------------------------|
G-----------------------------------------------------------------------|
D-----------------------------------------------------------------------|
A-/20-20-20-20-20-/20-20-20-20-20-/20-20-20-20-20-19-19-18-18-16-16-----|
E-----------------------------------------------------------------------|

/ =slide
Tap to rate this tab
 
# A B C D E F G H I J K L M N O P Q R S T U V W X Y Z