Song name
# A B C D E F G H I J K L M N O P Q R S T U V W X Y Z

Kaiser Chiefs - Kinda Girl You Are tab

Kinda Girl You Are (guitar riff)

Intro slide in from 12th fret A string while tremelo picking or lots or down strumming.

E-------------------|
B-------------------|
G-------------------|
D-2--5-----5--7-----|
A-0--3--3--3--5-----|
E--------1----------|

first part of Solo

E-----------------------------------------------|
B-----------------------------------------------|
G-4-7-4-6-----4----6---4-7-4-6---4----6-4-------| repeat twice
D------------7----7-----------------7----7------|
A-----------------------------------------------|
E-----------------------------------------------|
Tap to rate this tab
# A B C D E F G H I J K L M N O P Q R S T U V W X Y Z