Song name
# A B C D E F G H I J K L M N O P Q R S T U V W X Y Z

Kaiser Chiefs - Child Of The Jago tab

Artist: Kaiser Chiefs
Song: Child of the Jago
Tuning: Standard
Email: nathanb92@gmail.com


Main Riff:
e[-----------------------------------]
B[-----------------------------------]
G[-----------------------------------]
D[-----------------------------------]
A[-----------------------------------]
E[--8--8-8/11--11-11\4--4-4\3--3-3/8-]

e[-----------------------------------]
B[-----------------------------------]
G[-----------------------------------]
D[-----------------------------------]
A[-----------------------------------]
E[-----8-8/11--11-11\4--4-4\3--3-3/1-]


Keyboard:
e[--8--8-8/6--6-6/4--4-4/3--6--------]
B[-----------------------------------]
G[-----------------------------------]
D[-----------------------------------]
A[-----------------------------------]
E[-----------------------------------]

e[--8--8-8/6--6-6/4--4-4/3-----------]
B[-----------------------------------]
G[--------------------------5--------]
D[-----------------------------------]
A[------------------------------3----]
E[-----------------------------------]


Bridge 1:
e[------------------------------------------------]
B[------------------------------------------------]
G[------------------------------------------------]
D[------------------------------------------------] x2
A[--6-8-8/10---6-8-8/10---6-8-8/10---6-8-8/9\8----]
E[------------8----------8----------8-------------]

and at the end of the song is played an octave higher:
e[------------------------------------------------]
B[--4-6-6/8----4-6-6/8----4-6-6/8----4-6-6/7/6----]
G[------------5----------5----------5-------------]
D[------------------------------------------------]
A[------------------------------------------------]
E[------------------------------------------------]


Bridge 2:
e[------8------11----4----3----------]
B[---/8----/11-----4----3------------]
G[-----------------------------------]
D[-----------------------------------]
A[-----------------------------------]
E[-----------------------------------]

The Future is Medieval!
Tap to rate this tab
# A B C D E F G H I J K L M N O P Q R S T U V W X Y Z