Song name
# A B C D E F G H I J K L M N O P Q R S T U V W X Y Z

Kaiser Chiefs - Time Honoured Tradition tab

Verse

-----------------------------------------------------------------------------|
-----------------------------------------------------------------------------|
--6-6----4-4-----------4-4------------------6-6----4-4-----------------------|
--6-6----4-4----7-7----4-4----7-7----6-6----6-6----4-4----7-7----6-6---------|
--4-4----2-2----7-7----2-2----7-7----6-6----4-4----2-2----7-7----6-6---------|
----------------5-5-----------5-5----4-4------------------5-5----4-4---------|


'and that is the end of you.....'

------------------------------------------|
------------------------------------------|
------------------------------------------|
4----4-4-4-4--4--4------------------------|
4----4-4-4-4--2--4------------------------|
2----2-2-2-2-----2------------------------|


Chorus


--------------------------------------------------------------------------|
--------------------------------------------------------------------------|
--6-6----9-9----8-8----9----8----4----------------------------------------|
--6-6----9-9----8-8----9----8----4----------------------------------------|
--4-4----7-7----6-6----7----6----2----------------------------------------|
--------------------------------------------------------------------------|


Solo


-----------------------------------------------------------------------------|
--------------------------------------------------------7-7-10-10-9-9-10-9-5-|
----------------6-6-9-9-8-8-9-8-4----6-6-9-9-8-8-9-8-4-----------------------|
9~9--5---9~9--5--------------------------------------------------------------|
-----------------------------------------------------------------------------|
-----------------------------------------------------------------------------|

--------------------------------------------------------------------------------|
-7-7-10-10-9-9-10-9-5----7-7-10-10-9-9-10-9-5---7-7-10-10-9-9-10-9-5------------|
-------------------------6-6-9--9--8-8-9--8-4---6-6-9---9-8-8--9-8-4------------|
--------------------------------------------------------------------------------|
--------------------------------------------------------------------------------|
--------------------------------------------------------------------------------|

hey guys feel free 2 comment bt plz be nice KC rock!! xx nora xx mcfly_dude@hotmail.co.uk
Tap to rate this tab
# A B C D E F G H I J K L M N O P Q R S T U V W X Y Z