Guitaretab - guitar tabs
Song name
# A B C D E F G H I J K L M N O P Q R S T U V W X Y Z

Kaiser Chiefs - Ecerything Is Average Nowadays tab


Intro


G|----------|
D|----------|
A|-5--------|
E|----------|

Hold that


Verse:
   
G|---------------------------------|
D|---------------------------------|
A|-5-5-5-5-5-5-5-5-5-5-5-5-5-5-5-5-|
E|---------------------------------|

G|---------------------------------|
D|---------------------------------|
A|-2-2-2-2-2-2-2-2-2-2-2-2-2-2-2-2-|
E|---------------------------------| x2 

G|--------------------------------|--------------------------------|
D|--------------------------------|--------------------------------|
A|--------------------------------|--------------------------------|
E|-3-3-3-3-3-3-3-3-3-3-3-3-3-3-2-2|-5-5-5-5-5-5-5-5-5-5-5-5-5-5-5-5| 
Only play this once

G|---------------------------------|
D|---------------------------------|
A|-5-5-5-5-5-5-5-5-5-5-5-5-5-5-5-5-|
E|---------------------------------|

G|---------------------------------|
D|---------------------------------|
A|-2-2-2-2-2-2-2-2-2-2-2-2-2-2-2-2-|
E|---------------------------------| x2


Chorus:
G|--------------------------------|--------------------------------|
D|--------------------------------|--------------------------------|
A|--------------------------------|--------------------------------|
E|-3-3-3-3-3-3-3-3-3-3-3-3-3-3-2-2|-5-5-5-5-5-5-5-5-5-5-5-5-5-5-5-5| x2

Verse

Chorus

Bridge:
[ Tab from: http://www.guitaretab.com/k/kaiser-chiefs/87821.html ]
G|--------------------------------|--------------------------------|
D|--------------------------------|--------------------------------|
A|-----------------7-7-7-7-7-7-7-7|--------------------------------|
E|-7-7-7-7-7-7-7-7----------------|-5-5-5-5-5-5-5-5--3ó--3---5---5-| x2



G|-------------------------|
D|-------------------------|
A|-------------------------|
E|-7-7---7-7---7-7---7-7---| x2


During guitar solo play this

G|---------------------------------|
D|---------------------------------|
A|-5-5-5-5-5-5-5-5-5-5-5-5-5-5-5-5-|
E|---------------------------------|

G|---------------------------------|
D|---------------------------------|
A|-2-2-2-2-2-2-2-2-2-2-2-2-2-2-2-2-|
E|---------------------------------|

Chorus

G|---------------------------------|
D|---------------------------------|
A|-7-7-7-7-7-7-7-7-7-7-7-7-7-7-7-7-|
E|---------------------------------|

G|---------------------------------|
D|---------------------------------|
A|-4-4-4-4-4-4-4-4-4-4-4-4-4-4-4-4-|
E|---------------------------------| x2 

G|--------------------------------|--------------------------------|
D|--------------------------------|--------------------------------|
A|--------------------------------|--------------------------------|
E|-5-5-5-5-5-5-5-5-5-5-5-5-5-5-4-4|-7-7-7-7-7-7-7-7-7-7-7-7-7-7-7-7|

End on 

G|----------|
D|----------|
A|-7--------|
E|----------|

Thatís it I think hope u enjoy coz this song is amazing
Related for Ecerything Is Average Nowadays tab