Guitaretab - guitar tabs
Song name
# A B C D E F G H I J K L M N O P Q R S T U V W X Y Z

Kaizers Orchestra - Maestro tab

-------------------------------------------------------------------------------
			     Maestro  Kaizers Orchestra
-------------------------------------------------------------------------------
Tabbed by: gitar_norge / roy
Email: roy_hotmail.com

Tuning: Standard

Easy to play. Strange rythm.

e|---------------------------------------------------------------------------|
B|---------------------------------------------------------------------------|
G|-----------------10-10-9-10-10-10--10-9-10~-9-10-10-10--10-9-10-12-12-12---|
D|---66666685-----9-----------------9--------------------9-------------------|
A|---66666685----------------------------------------------------------------|
E|---88888863----------------------------------------------------------------|
[ Tab from: http://www.guitaretab.com/k/kaizers-orchestra/139807.html ]
e|---------------------------------------------------------------------------|
B|--12^----------------------------------------------------------------------|
G|-----12-12--12-10-12-10---12-12-10-12-10---12-12-10-12-10--10--------------|
D|-----------------------12---------------12---------------12--12-12-10-10-9-|
A|---------------------------------------------------------------------------|
E|---------------------------------------------------------------------------|

e|---------------------------------------------------------------------------|
B|----------------------------------------------------------12^--------------|
G|--10-10-9-10-10-10--10-9-10~-9-10-10-10--10-9-10-12-12-12----12-12--12-10--|
D|-9-----------------9--------------------9----------------------------------|
A|---------------------------------------------------------------------------|
E|---------------------------------------------------------------------------|

e|---------------------------------------------------------------------------|
B|---------------------------------------------------------------------------|
G|-12-10--12-12-10-12-10--12-12-10-12-10--10---------------------------------|
D|------12--------------12--------------12--12-12-10-10-9~-------------------|
A|---------------------------------------------------------------------------|
E|---------------------------------------------------------------------------|



| /  slide up
| \  slide down
| h  hammer-on
| p  pull-off
| ~  vibrato
| +  harmonic
| x  Mute note
===============================================================================
Related for Maestro tab