Song name
# A B C D E F G H I J K L M N O P Q R S T U V W X Y Z

Kaizers Orchestra - Sigynerblod tab

Sigøynerblod - Kaizers Orchestra
Tabbed by Thomas Klakegg


|-----------------------------------10-10-12-13-12-10--------------------------|
|13-12-10-------10-12-12-13----------------------------13-13-12-10-------------|
|-----------13-13--------------------------------------------------------12-10-|
|------------------------------------------------------------------------------|
|------------------------------------------------------------------------------|
|------------------------------------------------------------------------------|


|-----------------------|
|------------13-12------|
|--10-9-8-9-------14----|
|-----------------------|
|-----------------------|
|-----------------------|

Hold kjeft og sett deg ner
Her er ikkje rom for nok en blindpassasjer
Du får ikkje styra. Du får ikkje hyra
Så hold kjeft og sett deg ner.

Du kan bli min venn, eg kan bli din
Hvis det viser seg at du passer inn
For me har regla som du må følga
Du kan bli min venn og eg kan bli din

Men en liten ting før du går
|------------------------------|
|--13-13-15-16-15-13-----------|
|------------------------15----|
|------------------------------|
|------------------------------|
|------------------------------|
Et tips om du vil, eller et råd
|-------------------------------------------------------------------------------|
|--10-10-12-13-12-10------14-15-----17-16-16----16-15-14-13-12-11---------------|
|------------------------11-----------------------------------------------------|
|-------------------------------------------------------------------------------|
|-------------------------------------------------------------------------------|
|-------------------------------------------------------------------------------|
Hvis du blir tatt i å trossa mi makt
Så er mor di den første me går på

|-----------------------------------10-10-12-13-12-10-----------------------------|
|13-12-10-------10-12-12-13----------------------------13-13-12-10----------------|
|----------13-13---------------------------------------------------------12-10----|
|---------------------------------------------------------------------------------|
|---------------------------------------------------------------------------------|
|---------------------------------------------------------------------------------|

|------------------------|
|------------13-12-------|
|--10-9-8-9-------14-----|
|------------------------|
|------------------------|
|------------------------|
Tap to rate this tab
# A B C D E F G H I J K L M N O P Q R S T U V W X Y Z