Song name
# A B C D E F G H I J K L M N O P Q R S T U V W X Y Z

Kaizers Orchestra - Monsieur Clavier tab

Monsieur Clavier - Kaizers Orchestra (Acoustic)
Tabbed by: Thomas Klakegg
Intro

Background Chord: A

(Lead Guitar)
E|-----------------------------------|
B|-----------------------------------|
G|-----------------------------------|
D|-2-2-2---5----0--2-2-------5-------|		           	X2
A|-2-2-2------3-0--2-2---3-----------|
E|-----------------------------------|


E|-----------------------------------|
B|-------6-------------------6-------|
G|-2-2-2-----3--0--2-2--3------------|
D|-2-2-2--------0--2-2---------------|
A|-----------------------------------|
E|-----------------------------------|


E|-------------------------------------|
B|-------------------------------------|
G|------------5----0--2-2-------5------|
D|---2-2-2------3--0--2-2---3----------|
A|---2-2-2-----------------------------|
E|-------------------------------------|


E|-----------------------------------|
B|-----------------------------------|
G|-----------------------------------|
D|-2-2-2---5----0--2-----------------|
A|-2-2-2------3-0--2-----------------|
E|-----------------------5--3-2-0----|
Tap to rate this tab
 
# A B C D E F G H I J K L M N O P Q R S T U V W X Y Z