Guitaretab - guitar tabs
Song name
# A B C D E F G H I J K L M N O P Q R S T U V W X Y Z

Kaizers Orchestra - Pa Ditt Skift tab

hello.
i'm about to tab this devastating, crushing and ill tempered rocktrack.
here goes.

intro riff 1:

e-----------------------------------------|
H-----------------------------------------|
G-----------------------------------------|
D-----------------------------------------|
A---7---3---7---3---7---3---7---3---------|
E---5---1----5---1---5---1---5---1--------|

intro riff 2:
e--------------------------------------------------------------------------------------------------|
H----------------------------------12-------------------------------------12----------------12-14--|
G---14---------------14---13-14----13-14---------------14----13-14----13-14-13-14------------------|
D------14---------------14------------------14---------------14------------------------------------|
A----------15-14-12----------------------------15-14-12--------------------------------------------|
E--------------------------------------------------------------------------------------------------|

e-------------------------------------------------------------------------------------------------------|
H----------12-14----12-14-15-------------------------------12--------------------------------------12---|
G---13-14--------13------------14-------------14----13-14----13-14----------------14----13-14----13-14--|
D------------------------------------15-14-12-----14--------------------14---------------14-------------|
A------------------------------------------------------------------------------15-14-12-----------------|
E-------------------------------------------------------------------------------------------------------|

e---------------------------------------------------------------------------------------------------|
H--------------------------------12----------------12-14--------12-14----12-14-15-------------------|
G------------------14----13-14----13-14-13-14--------13-14--------13------------14------------------|
D---14---------------14-------------------------------------------------------------------15-14-12--|
A-------15-14-12------------------------------------------------------------------------------------|
E---------------------------------------------------------------------------------------------------|

e-----------------------------------|
H------------------12---------------|
G---14-----13-14----13-14-----------|   (hold last A)
D-------14--------------------------|
A-----------------------------------|
E-----------------------------------|

sj kva katten drog inn
han trur han traff blink
skt seg i foten, kan ikkje g uten hink
sj kva katten drog inn

(start verse riff)

e----------------------------------------------------------------------------------------------|
H----------------------------------------------------------------------------------------------|
G----------------------------------------------------------------------------------------------|
D---7-7-7-7-7-7-7-7-7-7-7-7-7-7-7-7-7-7-7-7-7-7-7-7-7-7-7-7-7-7-11-11-11-11-11-11-11-11-11-11--|
A---7-7-7-7-7-7-7-7-7-7-7-7-7-7-7-7-7-7-7-7-7-7-7-7-7-7-7-7-7-7-11-11-11-11-11-11-11-11-11-11--|
E----------------------------------------------------------------------------------------------|
[ Tab from: http://www.guitaretab.com/k/kaizers-orchestra/69829.html ]
e--------------------------------------------------------------------------------------|
H--------------------------------------------------------------------------------------|
G--------------------------------------------------------------------------------------|
D---11-11-11-11-11-11-12-12-12-12-12-12-12-12-12-12-12-12-12-12-12-12------------------|
A---11-11-11-11-11-11-12-12-12-12-12-12-12-12-12-12-12-12-12-12-12-12------------------|
E--------------------------------------------------------------------------------------|

refrain:

e----------------------------------------------------------------------------------------------------|
H----------------------------------------------------------------------------------------------------|
G----------------------------------------------------------------------------------------------------|
D----------------------------------------------------------------------------------------------------|
A---7----10----7----5---6-----7----10---7----5----6----7----10----7----5----6----7----10----7----5---|
E---5-----8----5----3----4----5-----8----5----3----4----5-----8----5----3----4----5-----8----5----3--|

now play intro riff 2 again, but only once, with the ending, and start verse riff immediatly.
repeat refrain-riff, but end it in this way:

e--------------------------------------------------------------------|
H--------------------------------------------------------------------|
G--------------------------------------------------------------------|
D--------------------------------------------------------------------|
A---7----10-----7----5-----6------7---7---7---7---7---7---7---7---7--| (HOLD that damn last A!)
E---5-----8-----5-----3-----4-----5---5---5---5---5---5---5---5---5--|

now Mr. Janove (lead singer) starts singing the waltz-part, akkompagned by a piano, bass and drums.

when it ends ( mmmm, det er meg......... ja det er meg ) start this riff:

e----------------------------------------------------------------------------------------------------|
H----------------------------------------------------------------------------------------------------|
G----------------------------------------------------------------------------------------------------|
D---7-7-7-7-7-7-7-7-7-7-7-7-7-7-7-7-----------7-7-7-7-7-7-7-7-7-7-7-7-7-7-7-7------------------------|
A---7-7-7-7-7-7-7-7-7-7-7-7-7-7-7-7-7-7-7-7-7-7-7-7-7-7-7-7-7-7-7-7-7-7-7-7-7-7-7-7------------------|
E-------------------------------------------5-5-5-5-----------------------------------------5-5-5-5--|

e------------------------------------------------------------------------------------------|
H------------------------------------------------------------------------------------------|
G------------------------------------------------------------------------------------------|
D---11-11-11-11-11-11-11-11-11-11-11-11---------------12-12-12-12-12-12-12-12-12-12-12-12--|
A---11-11-11-11-11-11-11-11-11-11-11-11-11-11-11-11-12-12-12-12-12-12-12-12-12-12-12-12----|
E----------------------------------------------9-9--9--9-----------------------------------|

e-------------------------|
H-------------------------|
G-------------------------|
D-------------------------|
A---12--12--12--12--------|
E---10--10--10--10--------|

now play the refrain-riff, but end it in this way:

play each stroke when lead singer says a word so that it's like:
(letters in BIG indicates that you should strike here)

han forSVANNT...... P............ DITT................SKIIIIIIIIIIIIIIIIIFT.

e-------------------|
H-------------------|
G-------------------|
D-------------------|
A---7--7--7--7------|
E---5--5--5--5------|

 now hold that last power chord as long as possible.

for improvation, fun and destruction of your ears try making some feetback, turn your 
gain up to it's limit, and place your guitars head on top of your amp. do whatever you 
after that.
have fun. :)

copyright 2006

tabbed by
claus brink mortensen,
15 years, denmark.
Related for Pa Ditt Skift tab