Guitaretab - guitar tabs
Song name
# A B C D E F G H I J K L M N O P Q R S T U V W X Y Z

Kaizers Orchestra - Dekk Bord tab

Kaizers Orchestra  Dekk Bord



Main Riff:
E--------------------|----------------7-7--|
B--9br-7---7-9-------|--9br-7---7-----7-7--|
G--9br-7---7-9-------|--9br-7---7----------|
D--------9------7-9--|--------9---7h9------|
A--------------------|---------------------|
E--------------------|---------------------|
[ Tab from: http://www.guitaretab.com/k/kaizers-orchestra/72820.html ]
Outro:
E---------------------------------------------|
B---------------------------------------------|
G-------------7--7--77\4--4----4/9-9--97\--|
D-7/9--9-9---7--7--77\4--4----4/9-9--97\--|
A-7/9--9-9---5--5--55\2--2----2/7--7--75\--|
E-5/7--7-7-----------------------------------|

E---------------------------------------------|
B---------------------------------------------|
G--4--4----4/7--7--77\4--4----4/9-9--9-----|
D-4--4----4/7--7--77\4--4----4/9-9--9-----|
A-2--2----2/5--5--55\2--2----2/7--7--7-----|
E--------------------------------------------|

E--------7-77\-------------------------------|
B----7---7-77\-------------------------------|
G9b-7------------7--7--7---7-----------------|
D-----------------7--7--7---7-----------------|
A-----------------5--5--5---5-----------------|
E---------------------------------------------|


drb89@hotmail.com
Related for Dekk Bord tab