Guitaretab - guitar tabs
Song name
# A B C D E F G H I J K L M N O P Q R S T U V W X Y Z

Kaizers Orchestra - Bris tab

Kaizers Orchestra  Bris



Intro:
E-------------------------------------------------------------|
B----5--------------8-----------------------------------------|
G--------5----5-------5-5~--------------------5--4-----------|
D--7-------6------5------5-----/7~-5~--7---7-----------------|
A-------------------------------------------------------------|
E-------------------------------------------------------------|

E-------------------------------------------------------------|
B----5-------5------8-----------------------------------------|
G------5--------------5-5~--------2----5-------2--5-4---2~---|
D--7-------6------5------5-----3-5----2-----3-5---------------|
A-------------------------------------------------------------|
E-------------------------------------------------------------|



Chorus:
E-------------------------------------------------------|
B----5------5-----8------7------------------------------|
G-------5-----------5-------------2------------2-/5-4--|
D--7------6-----5------4------3-5---5~-----------------|
A-------------------------------------------------------|
E-------------------------------------------------------|
[ Tab from: http://www.guitaretab.com/k/kaizers-orchestra/77896.html ]
E-------------------------------------------------------|
B----5------5-----8------7------------------------------|
G-------5-----------5-------------2--------------/5-4--|
D--7------6-----5------4------3-5---5~-----3---3-------|
A-------------------------------------------------------|
E-------------------------------------------------------|

E-------------------------------------------------------|
B----5-------5------8-----------------------------------|
G------5--------------5-5~-----------------------/5-4--|
D--7-------6------5------5-----/7~---5~---7~----7-------|
A-------------------------------------------------------|
E-------------------------------------------------------|

E------------------------------------------------------------|
B----5-------5------8----------------------------------------|
G------5--------------5-5~-----------------------/5-4-------|
D--7-------6------5------5-----/7~---5~---7~----7-------/7~--|
A------------------------------------------------------------|
E------------------------------------------------------------|


Guitar 2: 	02:38
E-----------------------------|
B-----------------------------|
G-----------------------------|
D--7--------------------------|
A----5br-------5br---5--------|
E--------8---8-----8---8-5-8--|

E-----------------------------|
B-----------------------------|
G-----------------------------|
D--7--------------------------|
A----5br-------5br---5---5----|
E--------8---8-----8---8---8--|


drb89@hotmail.com
Related for Bris tab