Song name
# A B C D E F G H I J K L M N O P Q R S T U V W X Y Z

Kaki King - Gay Sons Of Lesbian Mothers tab

                         Gay Sons Of Lesbian Mothers - Kaki King


Tabbed By: VelvetAssassin

Tuning: Standard (EADGBe)

NOTE - This has been tabbed using an acoustic guitar. I suppose the slides would sound 
much better on an electric one.

CAPO on 5th Fret. (Brings the key on par with the album version.)

Please play the song along while learning so that you can figure out the speed at 
which you must play the notes.

Legend:

s --> Slide
h --> Hammer
m --> Mute


-------*-------*-------*-------*-------*-------*-------*-------*-------*-------*

0:00 to 0:15

e|------------------0-|
B|-------0--------3---|
G|-----2--------0-----|
D|---5----------------|   (x4 Times)
A|-3----------3-------|
E|--------------------|

-------*-------*-------*-------*-------*

From 0:16 to 0:32

e|----------------------------------------------------------------|
B|----------------------------------------------------------------|
G|-2-2s4------------------------2-2s4-----7s9-7---2-2s4-2-0-------|
D|-------2s5--------------------------2s5-------------------0h2---|
A|----------------7s3--3s7----------------------------------------|
E|----------------------------------------------------------------|

-------*-------*-------*-------*-------*

The drum bass kicks in, and you can imitate it's sound like this:

e|--------------------------|
B|--------------------------|
G|--------------------------|
D|--------------------------|  (x Infinity Loop)
A|--------------------------|
E|-0-0-m-0-0---m--0---0-0-m-|

Mute the string with your fret hand at 'm'.

-------*-------*-------*-------*-------*

At 0:49 the MAIN TUNE:

e|---------------------------------------------|
B|---------------------------------------------|
G|-2-2s4-----7s9-7---2-2s4-2-0-----0-2-4-2-0---|
D|-------2s5-------------------0-2-----------2-|
A|---------------------------------------------|
E|---------------------------------------------|

e|---------------------------------------------|
B|---------------------------------------------|
G|-2-2s4-----7-11-9---2-2s4-2-0-----0-2-4-2-0--|
D|-------2s5-------------------0-2-----------2-|
A|---------------------------------------------|
E|---------------------------------------------|

-------*-------*-------*-------*-------*

Then the bass comes in at 1:04

e|--------------------------------------------------------|
B|--------------------------------------------------------|
G|--------------------------------------------------------|
D|--------------------------------------------------------|   (x 4 Times)
A|-3-3---7-7---10---7--7-7---------3-3---5-5---0---7--7-7-|
E|--------------------------------------------------------|

-------*-------*-------*-------*-------*

Again at 1:36 the Main Tune comes in:

e|-------------------------------------------------------------------------------------------|
B|-------------------------------------------------------------------------------------------|
G|2-2s4-----7s9-7---2-2s4-2-0-----0-2-4-2-0-------2-2s4-----7-11-9---2-2s4-2-0-----0-2-4-2-0-|
D|------2s5-------------------0-2-----------2-----------2s5-------------------0-2-----------2|(x2)
A|-------------------------------------------------------------------------------------------|
E|-------------------------------------------------------------------------------------------|

-------*-------*-------*-------*-------*

Next at 2:09 you play the bass:

e|--------------------------------------------------------|
B|--------------------------------------------------------|
G|--------------------------------------------------------|
D|--------------------------------------------------------|   (x 4)
A|-3-3---7-7---10---7--7-7---------3-3---5-5---0---7--7-7-|
E|--------------------------------------------------------|

-------*-------*-------*-------*-------*

At 2:40 a new progression is played:

e|---------------|
B|---------------|
G|---0-2-4-2-0---|
D|-2-----------2-|  (x8 times)
A|---------------|
E|---------------|

Simultaneously in the background a different bass kicks in at 2:40 itself:

e|--------------------------------------------------------|
B|--------------------------------------------------------|
G|--------------------------------------------------------|
D|--------------------------------------------------------|
A|-10s3---3s7--7s3---3s7---9-10s3---3s7--7s3---3s7---9-10-|
E|--------------------------------------------------------|

-------*-------*-------*-------*-------*

From 2:57 till 3:28 the Main Melody 4 times:


e|-------------------------------------------------------------------------------------------|
B|-------------------------------------------------------------------------------------------|
G|2-2s4-----7s9-7---2-2s4-2-0-----0-2-4-2-0-------2-2s4-----7-11-9---2-2s4-2-0-----0-2-4-2-0-|
D|------2s5-------------------0-2-----------2-----------2s5-------------------0-2-----------2|(x4)
A|-------------------------------------------------------------------------------------------|
E|-------------------------------------------------------------------------------------------|

-------*-------*-------*-------*-------*

Finally, from 3:28 to end keep on playing the bass. (It comes to 4 times as per 
the album version.)

e|----------------------------------------------------------|
B|----------------------------------------------------------|
G|----------------------------------------------------------|
D|----------------------------------------------------------|   (x 4)
A|-3-3---7-7---10---7--7-7---------3-3---5-5---0---7--7-7---|
E|----------------------------------------------------------|


-------*-------*-------*-------*-------*-------*-------*-------*-------*-------*


ThanQ very much for taking out your time and reading my tab. :)
Tap to rate this tab
 
# A B C D E F G H I J K L M N O P Q R S T U V W X Y Z