Song name
# A B C D E F G H I J K L M N O P Q R S T U V W X Y Z

Kaki King - Close Your Eyes And Youll Burst Into Flames tab

Help us improve GuitareTab! Take a short survey!
-------------------------------------------------------------------------------
Song: Close Your Eyes and Youll Burst into Flames
Album: Everybody Loves You
Artist: Kaki King
-------------------------------------------------------------------------------
Tabbed by: Steven Williams
Email: stevenw1123@yahoo.com

Note: This is not the whole song. It was very difficult trying to figure out her
fingerings of each hand by ear because of her unique style. the rest of the song
is difficult so if anyone can figure it out please e-mail me. In the meantime I
will be trying to figure it out.

Tuning: Drop C#

You hammer down on the fret indicated with a finger to produce the sound

*Bold letters indicate the right hand hammers*     
e|-----------------------------2p0-------------------------------------------|
B|-------9---------------7---------------------------------------------------|
G|---8-6---------6-----------------------------------------------------------|
D|-----------9---------9-----7-----------------------------------------------|
A|4-------7---9-----7-----5-------------------------------------------------|
E|-----------------7---------------------------------------------------------|

e|---------------------------------------------------------------------------|
B|-------9---------------7---------------------------------------------------|
G|---8-6---------6-------------7---------------------------------------------|
D|-----------9---------9-----7-----------------------------------------------|
A|4-------7---9-----7-----5-------------------------------------------------|
E|-----------------7---------------------------------------------------------| 
e|--------------------------------2p0----------------------------------------|
B|--------12---10---9-----5p0------------------------------------------------|
G|---------------------------------------------------------------------------|
D|------9----7----6-----9-------7--------------------------------------------|
A|-4-11---------------7-------5----------------------------------------------|
E|---------------------------------------------------------------------------|

e|------------------------------------------------------------6---7---9------|
B|--------12---10---9-----------------8---9---10-----9---10-----6---7--------|
G|------------------------9-----7-----------6----7----------6----------------|
D|------9----7----6-----9---------9-7---6----------9---7---------------------|
A|-4-11---------------7-------5----------------------------------------------|
E|---------------------------------------------------------------------------|

reapeat..............................|              
e|-----12p0----------12-12p0-------------------------------------------------|
B|----------10p0-9p0---------10p0-9p0----------------------------------------|
G|---------------------------------------------------------------------------|
D|---9-----------------------------------------------------------------------|
A|-9-------------------------------------------------------------------------|
E|---------------------------------------------------------------------------|

reapeat..............................|
e|-----12p0----------12-12p0-------------------------------------------------|
B|----------10p0-9p0---------10p0-9p0----------------------------------------|
G|---------------------------------------------------------------------------|
D|---------------------------------------------------------------------------|
A|---9-----------------------------------------------------------------------|
E|-9-------------------------------------------------------------------------| 
reapeat              + (tap directly over fret)
e|-----12p0-10p0--------12-12p0-10p0-----------------------------------------|
B|---------------(12)12--------------10/12-----------------------------------|
G|---------------------------------------------------------------------------|
D|---------------------------------------------------------------------------|
A|---3-----------------------------------------------------------------------|
E|-3-------------------------------------------------------------------------|

| /  slide up
| \  slide down
| h  hammer-on
| p  pull-off
| ~  vibrato
| +  harmonic
| x  Mute note
===============================================================================
Related for Close Your Eyes And Youll Burst Into Flames tab