Song name
# A B C D E F G H I J K L M N O P Q R S T U V W X Y Z

Kakkmaddafakka - Your Girl tab

Artist: Kakkmaddafakka 
Song: Your Girl
Album: Hest

Intro

E------------------------------------------------------------------------|
B----12--------14-----12----------14------12--------14----12~--12--------|
G---------------------------------------------------------12~-----12-----|
D--12--12-12h16--16-14--14-14h1616--16--12--12-12h16--16--14~--------14--|
A------------------------------------------------------------------------|
E------------------------------------------------------------------------|

Verse
ďLast Night I had a dream about...ď

E---------------------------------------|
B----12--------14-----12----------14----|
G---------------------------------------| 	3x
D--12--12-12h16--16-14--14-14h1616--16ó-|
A---------------------------------------|
E---------------------------------------|

E-----------------------------------|
B----12--------14----12~--12--------|
G--------------------12~-----12-----|
D--12--12-12h16--16--14~--------14--|
A-----------------------------------|
E-----------------------------------|

E---------------------------------------|
B----12--------14-----12----------14----|
G---------------------------------------| 	3x
D--12--12-12h16--16-14--14-14h1616--16ó-|
A---------------------------------------|
E---------------------------------------|

E-----------------------------------|
B----12--------14----12~--12--------|
G--------------------12~-----12-----|
D--12--12-12h16--16--14~--------14--|
A-----------------------------------|
E-----------------------------------|

Chorus (actually only piano)
Chords are:

Bm                  A
      Cause that is your girl, itís your girl
C#m                  E                             Bm
       You know itís your girl, itís your girl ooo
              A
You know itís your girl, itís your girl
C#m                    E
         You know itís your girl

Intro
Verse
Chorus 2x

Bridge
Part 1
E----------------------------------------------------------------------|
B----------------------------------------------------------------------|
G----11-----11-----11-----11-----11-----11-----11-----11-----11-----11-|
D--12---1212---1212---1212---1212---1212---1212---1212---1212---1212---|
A----------------------------------------------------------------------|
E----------------------------------------------------------------------|

E------------------------------------------------------------------------|
B------------------------------------------------------------------------|
G------11-----11-----11-----11-----11-----11-----11-----11-----11-----11-|
D--1212---1212---1212---1212---1212---1212---1212---1212---1212---1212---|
A------------------------------------------------------------------------|
E------------------------------------------------------------------------|

E-------------------------------|
B-------------------------------|
G------11-----11-----11-----11--|
D--1212---1212---1212---1212----|
A-------------------------------|
E-------------------------------|

Part2
E-------------------------------------|
B----12--------14-----12--------------|
G-------------------------------------| 
D--12--12-12h16--16-14--14------12--ó-|
A---------------------------1414--14--|
E-------------------------------------|

E-------------------------------------|
B----12--------14-----12--------------|
G-------------------------------14----|	2x 
D--12--12-12h16--16-14--14----------ó-|
A---------------------------1414--14--|
E-------------------------------------|

E-----------------------------------|
B----12--------14----12~--12--------|
G--------------------12~-----12-----|
D--12--12-12h16--16--14~--------14--|
A-----------------------------------|
E-----------------------------------|

Chorus 2x

End (while piano is playing)

E--------------------12~--|
B----12--------14----12~--|
G--------------------12~--|
D--12--12-12h16--16--14~--|
A-------------------------|
E-------------------------|

Please rate the tab!
Thanks, Zach 182
Tap to rate this tab
# A B C D E F G H I J K L M N O P Q R S T U V W X Y Z