Song name
# A B C D E F G H I J K L M N O P Q R S T U V W X Y Z

Kalai - Divide Me tab

Kalai- Divide Me

Intro:

e|--8--8-x---6--6-x---4--4-x--6--666-x|
B|-9---9-x--8---8-x--4---4-x-4--------|
G|------------------------------------|
D|------------------------------------|
A|------------------------------------|
E|------------------------------------|

e|--8--8-x---6--6-x---4--4-x--4----4--|
B|-9---9-x--8---8-x--4---4-x--4---4---|
G|----------------------------5-------|
D|-------------------------------5--66|
A|------------------------------------|
E|------------------------------------|

x=slight strum on muted string

www.kalai.cc
If anybody knows anymore Kalai tabs please e-mail me:
mtpocketz@hotmail.com
Tap to rate this tab
# A B C D E F G H I J K L M N O P Q R S T U V W X Y Z