Song name
# A B C D E F G H I J K L M N O P Q R S T U V W X Y Z

Kalapana - The Hurt chords

Highlighted       Show chord diagrams
INTRO:
E7sus4, STRUMMING


E7sus4    Am7    C#M7    DM7      Bm7    E     Am7    F#m7     E7sus4
--7----------------4-------1-------2--------------------2--------7-----|
--10-------2-------5-------7-------3------------2-------2--------10----|
--7--------1-------4-------6-------2-----1------1-------2--------7-----|
--9--------2-------6-------7-------4-----2------2-------4--------9-----|
--7----------------4-------5-------2-----2--------------4--------7-----|
-------------------4-------5----------------------------2--------------|

VERSE:
 Am7     C#M7     DM7    Bm7    E    F      A     E7sus4
-----------4-------4------2----------2----------------7----------------|
--2--------5-------7------3----------2------2--------10----------------|
--1--------4-------5------2-----1----2------2---------7----------------|
--2--------6-------7------4-----2----4------2---------9----------------|
-----------4-------5------2-----2----4----------------7----------------|
-------------------------------------2---------------------------------|

CHORUS:

  Am7     DM7     E
-----------2-----------------------------------------------------------|
---2-------2-----------------------------------------------------------|
---1-------2------1----------------------------------------------------|
---2--------------2----------------------------------------------------|
------------------2----------------------------------------------------|
-----------------------------------------------------------------------|

BRIDGE:

  DM7    DM7    CM7    F      Bm7    E7sus4
---4------4------3-----1-------2--------7------------------------------|
---7------6------5-----1-------3--------10-----------------------------|
---5------4------4-----2-------2--------7------------------------------|
---7------7------5-----3-------4--------9------------------------------|
---5------5------3-----3-------2--------7------------------------------|
-----------------------1------------------------------------- ---------|

OUTRO:

  Am7     DM7     
-----------2-----------------------------------------------------------|
---2-------2-----------------------------------------------------------|
---1-------2-----------------------------------------------------------|
---2-------------------------------------------------------------------|
-----------------------------------------------------------------------|
-----------------------------------------------------------------------|



ENJOY!!!


GOTHFAYERI


\m/>,<\m/
Tap to rate this tab
# A B C D E F G H I J K L M N O P Q R S T U V W X Y Z