Song name
# A B C D E F G H I J K L M N O P Q R S T U V W X Y Z

Kalas - Monuments To Ruins tab

Tabbed by: Joshua Garcia (joshuag523@aol.com)

Tabs for the song: Monuments To Ruins by Kalas
Please rate and let me know if you have any corrections. Thank you.


http://teepeerecords.com/bands/kalas/index.php


Tuning: Drop D (D A D G B E)


Intro
Guitar 1/2:
E||---------|
B||---------|
G||---------|
D||--5-3-2--|
A||--5-3-2--|
D||--5-3-2--|
     . . .


Riff 1
Guitar 1/2:
E||--------------------------------------------------------------------------|
B||--------------------------------------------------------------------------|
G||--------7~-----7/9-9-9-10-10-10-10----------------------------------------|
D||--0~----x------x/x-x-x-x--x--x--x---8~-----8~---8-8-10-10-10~--10-11-11~--|
A||--0~----5~-----5/7-7-7-8--8--8--8---8~-----8~---8-8-10-10-10~--10-11-11~--|
D||--0~--------------------------------8~-----8~---8-8-10-10-10~--10-11-11~--|


E||---------------------------------------------------------------------|
B||---------------------------------------------------------------------|
G||--------7~-----7/9-9-9-10-10-10-10-----------------------------------|
D||--0~----x------x/x-x-x-x--x--x--x---8~-----8~---8-8-7-7-7~--7-5-3-2--| x4
A||--0~----5~-----5/7-7-7-8--8--8--8---8~-----8~---8-8-7-7-7~--7-5-3-2--|
D||--0~--------------------------------8~-----8~---8-8-7-7-7~--7-5-3-2--|
                                                                 . . .


Riff 2
Guitar 1/2:
E||----------------------------------|------------------------------------|
B||----------------------------------|------------------------------------|
G||--------7~------------------------|---------7~-------------------------|
D||--0~----7~-----5/7-7-10~---7-11~--|--0~-----7~-----11-10-10-8-10-8-7~--|
A||--0~----5~-----5/7-7-10~---7-11~--|--0~-----5~-----11-10-10-8-10-8-7~--|
D||--0~-----------5/7-7-10~---7-11~--|--0~------------11-10-10-8-10-8-7~--|


E||----------------------------------|------------------------------------|
B||----------------------------------|------------------------------------|
G||--------7~------------------------|---------7~-------------------------|
D||--0~----7~-----5/7-7-10~---7-11~--|--0~-----7~-----10--7--7--11--7--7--| x2
A||--0~----5~-----5/7-7-10~---7-11~--|--0~-----5~-----10--7--7--11--7--7--|
D||--0~-----------5/7-7-10~---7-11~--|--0~------------10--7--7--11--7--7--|



Riff 1
Guitar 1/2:
E||--------------------------------------------------------------------------|
B||--------------------------------------------------------------------------|
G||--------7~-----7/9-9-9-10-10-10-10----------------------------------------|
D||--0~----x------x/x-x-x-x--x--x--x---8~-----8~---8-8-10-10-10~--10-11-11~--|
A||--0~----5~-----5/7-7-7-8--8--8--8---8~-----8~---8-8-10-10-10~--10-11-11~--|
D||--0~--------------------------------8~-----8~---8-8-10-10-10~--10-11-11~--|


E||---------------------------------------------------------------------|
B||---------------------------------------------------------------------|
G||--------7~-----7/9-9-9-10-10-10-10-----------------------------------|
D||--0~----x------x/x-x-x-x--x--x--x---8~-----8~---8-8-7-7-7~--7-5-3-2--| x2
A||--0~----5~-----5/7-7-7-8--8--8--8---8~-----8~---8-8-7-7-7~--7-5-3-2--|
D||--0~--------------------------------8~-----8~---8-8-7-7-7~--7-5-3-2--|
                                                                 . . .


Riff 2
Guitar 1/2:
E||----------------------------------|------------------------------------|
B||----------------------------------|------------------------------------|
G||--------7~------------------------|---------7~-------------------------|
D||--0~----7~-----5/7-7-10~---7-11~--|--0~-----7~-----11-10-10-8-10-8-7~--|
A||--0~----5~-----5/7-7-10~---7-11~--|--0~-----5~-----11-10-10-8-10-8-7~--|
D||--0~-----------5/7-7-10~---7-11~--|--0~------------11-10-10-8-10-8-7~--|


E||----------------------------------|------------------------------------|
B||----------------------------------|------------------------------------|
G||--------7~------------------------|---------7~-------------------------|
D||--0~----7~-----5/7-7-10~---7-11~--|--0~-----7~-----10--7--7--11--7--7--| x2
A||--0~----5~-----5/7-7-10~---7-11~--|--0~-----5~-----10--7--7--11--7--7--|
D||--0~-----------5/7-7-10~---7-11~--|--0~------------10--7--7--11--7--7--|



Riff 3
Guitar 1/2:
E||-------------------------------------------------------------|
B||-------------------------------------------------------------|
G||-------------------------------------------------------------|
D||--8~--888~--888~--888-10---10-7~--777~--777~---7~---7~---7~--|
A||--8~--888~--888~--888-10---10-7~--777~--777~---7~---7~---7~--|
D||--8~--888~--888~--888-10---10-7~--777~--777~---7~---7~---7~--|


Guitar 1 (Dub):
E||----------------------------|
B||--2~----2~----2b3r2~----3~--|
G||----------------------------|
D||----------------------------|
A||----------------------------|
D||----------------------------|


Guitar 1/2:
E||---------------------------------------------------------------|
B||---------------------------------------------------------------|
G||---------------------------------------------------------------|
D||--8~--888~--888~--888-10---10-7~--777~--777-10--7--7--6--3--5--|
A||--8~--888~--888~--888-10---10-7~--777~--777-10--7--7--6--3--5--|
D||--8~--888~--888~--888-10---10-7~--777~--777-10--7--7--6--3--5--|
                         .    .



Riff 2
Guitar 1/2:
E||----------------------------------|------------------------------------|
B||----------------------------------|------------------------------------|
G||--------7~------------------------|---------7~-------------------------|
D||--0~----7~-----5/7-7-10~---7-11~--|--0~-----7~-----11-10-10-8-10-8-7~--|
A||--0~----5~-----5/7-7-10~---7-11~--|--0~-----5~-----11-10-10-8-10-8-7~--|
D||--0~-----------5/7-7-10~---7-11~--|--0~------------11-10-10-8-10-8-7~--|


E||----------------------------------|------------------------------------|
B||----------------------------------|------------------------------------|
G||--------7~------------------------|---------7~-------------------------|
D||--0~----7~-----5/7-7-10~---7-11~--|--0~-----7~-----10--7--7--11--7--7--|
A||--0~----5~-----5/7-7-10~---7-11~--|--0~-----5~-----10--7--7--11--7--7--|
D||--0~-----------5/7-7-10~---7-11~--|--0~------------10--7--7--11--7--7--|



Riff 3
Guitar 1/2:
E||-------------------------------------------------------------|
B||-------------------------------------------------------------|
G||-------------------------------------------------------------|
D||--8~--888~--888~--888-10---10-7~--777~--777~---7~---7~---7~--|
A||--8~--888~--888~--888-10---10-7~--777~--777~---7~---7~---7~--|
D||--8~--888~--888~--888-10---10-7~--777~--777~---7~---7~---7~--|


Guitar 1 (Dub):
E||----------------------------|
B||--2~----2~----2h3p2~----3~--|
G||----------------------------|
D||----------------------------|
A||----------------------------|
D||----------------------------|


Guitar 1/2:
E||---------------------------------------------------------------|
B||---------------------------------------------------------------|
G||---------------------------------------------------------------|
D||--8~--888~--888~--888-10---10-7~--777~--777-10--7--7--6--3--5--|
A||--8~--888~--888~--888-10---10-7~--777~--777-10--7--7--6--3--5--|
D||--8~--888~--888~--888-10---10-7~--777~--777-10--7--7--6--3--5--|
                         .    .

E||------|
B||------|
G||------|
D||--0~--|
A||--0~--|
D||--0~--|



Interlude
Guitar/Bass:
G||---------------------------------------------|-------------------------------------------|
D||---------------------------------------------|-------------------------------------------| x4
A||------5~---5h7p5h7p5~--------5---------7-----|------5~---5h7p5h7p5~--------5---\4---4----|
D||--0~-------------------0-8~----8/10-10---10--|--0~-------------------0-8~----8----7---7--|


Guitar 1:
E||------------------------------------|-----------------------------------|
B||------------------------------5-----|-----------------5-----------------|
G||--5/7~--------5/7~----5/7~------7~--|--5/7~----5/7~-----7~---7-7-7-7-7--|
D||------------------------------------|-----------------------------------|
A||------------------------------------|-----------------------------------|
D||------------------------------------|-----------------------------------|


E||------------------------------------|-----------------------|
B||------------------5-----------------|-----------------------|
G||--5/7-7-7-5/7-7-7---7~---7-7-7-7-7--|--5/7-7-7-7-7-7b8-8r7--|
D||------------------------------------|-----------------------|
A||------------------------------------|-----------------------|
D||------------------------------------|-----------------------|



Bridge
Guitar 1/2:
E||---------------------------------------------|------------------------------------------|
B||---------------------------------------------|------------------------------------------|
G||---------------------------------------------|------------------------------------------|
D||---------------------------------------------|------------------------------------------| x2
A||------5~---5h7p5h7p5~--------5---------7-----|------5~---5h7p5h7p5~--------5-------4----|
D||--0~---------------------8~----8/10-10---10--|--0~---------------------8~----8-7-7---7--|


Guitar 1:
E||---------------------------------------------|------------------------------------------|
B||---------------------------------------------|------------------------------------------|
G||---------------------------------------------|------------------------------------------|
D||---------------------------------------------|------------------------------------------| x2
A||------5~---5h7p5h7p5~--------5---------7-----|------5~---5h7p5h7p5~--------5-------4----|
D||--0~---------------------8~----8/10-10---10--|--0~---------------------8~----8-7-7---7--|


Guitar 2:
E||------------------------------------------|------------------------------------------|
B||------------------------------------------|------------------------------------------|
G||------------------------------------------|------------------------------------------|
D||------3~---3h5p3h5p3~--------3-------5----|------3~---3h5p3h5p3~--------3-------2----| x2
A||-------------------------5~----5/7-7---7--|-------------------------5~----5-3-3---3--|
D||--0~--------------------------------------|--0~--------------------------------------|



Solo
Guitar 1:
E||-------------------------------------------------------------------------------------|
B||--------------------13~-------------13~--------13~-----------------------------------|
G||--(12pbr)12b14~-------------12b14~------12b14~-----13-12p10----10~-----12p10-----9~--|
D||------------------------------------------------------------12---------------12~-----|
A||-------------------------------------------------------------------------------------|
D||-------------------------------------------------------------------------------------|


E||----------------------------------------------------------------------------------------|
B||----------------------------------------------------------------------------------------|
G||--10--9--12p9-10p9-----------------9-------9-10----13-12p10----10~-----12p10-----9~--/--|
D||-------------------12b~-14-r12~------12-12------12---------12----------------12~--------|
A||----------------------------------------------------------------------------------------|
D||----------------------------------------------------------------------------------------|


E||----------------------------------------------------------|
B||--------------------10-10-------------------------10------|
G||---------------------------------10--------12~-------12~--|
D||--------------10h12-------12~-------12~-------------------|
A||--15-12\10h12---------------------------------------------|
D||----------------------------------------------------------|


E||-----------------------------------------------------------------|
B||--11----10----------10----11----13----11----13----13b~15~---15~--|
G||--------------12-------------------------------------------------|
D||-----12----12----12----12----12----12----12----10----------------|
A||-----------------------------------------------------------------|
D||-----------------------------------------------------------------|


E||----------10~--------10~--13-10----------------------------------------|
B||--13b15~-----13b15~-------------13-10-----------13-10------------------|
G||--------------------------------------12b14-14---------12-12-12b14-14--|
D||-----------------------------------------------------------------------|
A||-----------------------------------------------------------------------|
D||-----------------------------------------------------------------------|


E||----------------------------------------------------------------|
B||--13-10-10----13-10-10----13-10-10----13-10-10------------------|
G||-----------12----------12----------12----------12-12b14-12-10~--|
D||----------------------------------------------------------------|
A||----------------------------------------------------------------|
D||----------------------------------------------------------------|


Guitar 2:
E||--------------------------------------------------------------------------|
B||--------------------------------------------------------------------------|
G||--------7~-----7/9-9-9-10-10-10-10----------------------------------------|
D||--0~----x------x/x-x-x-x--x--x--x---8~-----8~---8-8-10-10-10~--10-11-11~--|
A||--0~----5~-----5/7-7-7-8--8--8--8---8~-----8~---8-8-10-10-10~--10-11-11~--|
D||--0~--------------------------------8~-----8~---8-8-10-10-10~--10-11-11~--|


E||---------------------------------------------------------------------|
B||---------------------------------------------------------------------|
G||--------7~-----7/9-9-9-10-10-10-10-----------------------------------|
D||--0~----x------x/x-x-x-x--x--x--x---8~-----8~---8-8-7-7-7~--7-5-3-2--| x2
A||--0~----5~-----5/7-7-7-8--8--8--8---8~-----8~---8-8-7-7-7~--7-5-3-2--|
D||--0~--------------------------------8~-----8~---8-8-7-7-7~--7-5-3-2--|
                                                                 . . .



Riff 2 / Outro
Guitar 1/2:
E||----------------------------------|------------------------------------|
B||----------------------------------|------------------------------------|
G||--------7~------------------------|---------7~-------------------------|
D||--0~----7~-----5/7-7-10~---7-11~--|--0~-----7~-----11-10-10-8-10-8-7~--|
A||--0~----5~-----5/7-7-10~---7-11~--|--0~-----5~-----11-10-10-8-10-8-7~--|
D||--0~-----------5/7-7-10~---7-11~--|--0~------------11-10-10-8-10-8-7~--|


E||----------------------------------|------------------------------------|
B||----------------------------------|------------------------------------|
G||--------7~------------------------|---------7~-------------------------|
D||--0~----7~-----5/7-7-10~---7-11~--|--0~-----7~-----10--7--7--11--7--7--| x2
A||--0~----5~-----5/7-7-10~---7-11~--|--0~-----5~-----10--7--7--11--7--7--|
D||--0~-----------5/7-7-10~---7-11~--|--0~------------10--7--7--11--7--7--|


E||------------------------|
B||------------------------|
G||------------------------|
D||--10--7--7--6--3--5--0--|
A||--10--7--7--6--3--5--0--|
D||--10--7--7--6--3--5--0--|




Tablature Legend
----------------
 h   hammer-on
 p   pull-off
 b   bend
 pb  pre-bend
 r   release bend
 ~   hold / vibrato
 .   palm mute
 /   slide up
 \   slide down
 *   pinch harmonic
 '   natural harmonic
 x   mute note
 T   tap
Tap to rate this tab
# A B C D E F G H I J K L M N O P Q R S T U V W X Y Z