Kalashnikov - Brothers In Africa tab

-------------------------------------------------------------|
-------------------------------------------------------------|
-------------------------------------------------------------|
-------------------------------------------------------------|
-------------------------------------------------------------|
-0-0-0-3-5-0---7-7-7-5-3-0-----------------------------------| x4


-------------------------------------------------------------|
-------------------------------------------------------------|
-------------------------------------------------------------|
-------------------------------------------------------------|
-------------------------------------------------------------|
--0-3-5-0-----7-5-3-0----------------------------------------|
--0-3-5-0-----7-5-3-0----------------------------------------| x4


-------------------------------------------------------------|
-------------------------------------------------------------|
-------------------------------------------------------------|
------7--9--12---7--9--12------------------------------------|
-------------------------------------------------------------|
0-0--------------------------------0-0-0-0-0-0-0-0-----------|x8


-------------------------------------------------------------|
-------------------------------------------------------------|
-------------------------------------------------------------|
-------------------------------------------------------------|
-------------------------------------------------------------|
--0-3-5-0-----7-5-3-0----------------------------------------|
--0-3-5-0-----7-5-3-0----------------------------------------| x4

-------------------------------------------------------------|
-------------------------------------------------------------|
-------------------------------------------------------------|
------7--9--12---7--9--12------------------------------------|
-------------------------------------------------------------|
0-0--------------------------------0-0-0-0-0-0-0-0-----------|x4

-------------------------------------------------------------|
-------------------------------------------------------------|
-------------------------------------------------------------|
-------------------------------------------------------------|
-------------------------------------------------------------|
--0-3-5-0-----7-5-3-0----------------------------------------|
--0-3-5-0-----7-5-3-0----------------------------------------| x4


-------------------------------------------------------------|
-------------------------------------------------------------|
-------------------------------------------------------------|
-----9-9-9-9-9-9-9-7-----4-3-2-0-----------------------------|
-----7-7-7-7-7-7-7-5-----2-1-0-0-----------------------------|
-------------------------------------------------------------| x6
Tap to rate this tab
 
# A B C D E F G H I J K L M N O P Q R S T U V W X Y Z