Song name
# A B C D E F G H I J K L M N O P Q R S T U V W X Y Z

Kalei Gamiao - Mach 4 tab

Mach 4 by Kalei Gamiao
 This tab is for Ukulele, my friend Rino and I tabbed this from the video of Kalei 
plaing it on YouTube, so all you Uklele players enjoy
(http://www.youtube.com/watch?v=BsTf7aJeOto)
Intro
A|-3-(x6)-|-1-(x6)-|-6~|
E|-3------|-1------|-6~|
C|--------|--------|---|
G|--------|--------|---|

A|-3-(x6)-|-1-(x6)-|-3-(x5)-|-5-(x6)-|-6-(x5)-|-8-(x5)-|
E|-3------|-1------|-4------|-6------|-4------|-6------|
C|--------|--------|-3------|-5------|-3------|-5------|
G|--------|--------|--------|--------|--------|--------|
Part 1
                                P1
A|-8p7p5-7~-5---5---|-------6-|------6------6----------|
E|------------8--8-|-----8---|-----8---------8---8-8-|
C|------------------|---0-----|---0-------------0--0--|
G|------------------|-0-------|-0-------0--------------|
  P2
A|-------5---5-----------|------10-10-|
E|-----6-------6---6---6-|----11---11-|
C|---0-----------0---0---|---0-----0--|
G|-0-------0-------------|-0-------0--|
  P2 P1 P2 P3                         P3
A|--|--|--|-----3---3---33|6-6p5p3-|--|-6-6-6-6p5p3-5-5-|
E|--|--|--|---4-------4-----|--------|--|-----------------|
C|--|--|--|-3-----3---------|--------|--|-----------------|
G|--|--|--|-----------------|--------|--|-----------------|
      P4          P5
A|-5-|---------5-|---------6---6-|
E|-3-|--3----3---|---3---3---3---|(x2)
C|-5-|----5------|-----5---------|
G|-4-|4----------|-4-------------|

A|-10-10-10----10-10---10-10---|
E|-7-------------------------7-|(x?)
C|-7-----------------7---------|
G|-7--------7------------------|
Main
  P1
A|-3---------------------|----|-------6p3----|------8p5---|
E|-3----3----3h4p3-3-1-3-|----|-----4-----4--|----6----6--|
C|-0------0--------------|(x6)|---5--------5-|---7-------7|
G|-0-0-------------------|----|-3------------|-5----------|
Repeat
Verse


A|-10-8-6-5-|-------8-8-10p8p6----|
E|-11-10-8-6-|-6h7p6-6----------8~-|
C|-----------|-------5-------------|
G|-----------|-------5-------------|

A|-10-8---6-5-|-5-3-5-|
E|-11-10-8-6-|-6-5-7-|
C|------------|-5-3-5-|
G|------------|---3-5-|

A|-10-8--6-5-|-------8-8-10p9p6----|-5-6-5-|
E|-11-10-8-6-|-6h7p6-6----------8~-|-3-3-3-|
C|-----------|-------5-------------|-4-4-4-|
G|-----------|-------5-------------|-5-5-5-|

A|-1-3-x-6-5-x-3-1---1-x-1-x-1-1-3---1-3-6-5-5-8br-8---6-|
E|-1-3-x-3-3-x-3-1---1-x-1-x-1-1-3---1-3-3-3-3-6---6---8-|
C|---------------------------------------6-5-0-8---------|
G|-------------------------------------------------------|

A|-1-3-x-6-5-x-3-1---1-x-1-x-1-1-3---1-3-x-6-5-x-3-1-|
E|-1-3-x-3-3-x-3-1---1-x-1-x-1-1-3---1-3-x-3-3-x-3-1-|
C|---------------------------------------------------|
G|---------------------------------------------------|

A|-1---1-|    |-1-3---6-8--|-3h5-5h6p5-5-----6---6h8p6-8-|
E|-1h3-3-|(x6)|-1-3---3-6--|-4---4-----4h6---6h8-6-----6-|
C|-------|    |------------|-3---3-----3-----------------|
G|-------|    |------------|-3---3-----3-----------------|

A|-3h5-5h6p5-5-----6---6-4-3-1-3h5-5h6p5-5---5-6-10-10-|
E|-4---4-----4h6---6h8-6-4-3-1-4---4-----4h6-3-3-7---7--|
C|-3---3-----3-----------------3---3-----3---4-4-7---7--|
G|-3---3-----3-----------------3---3-----3---5-5-7---8--|
Outro

A|-6/---6-6-------3-3-5-|
E|-8/---8-8-8-3-3-4-4-6-|(x2)
C|-8/---8-8-8-3-3-3-3-5-|
G|----------------------|

A|-3-5-6-3-8-15-|
E|-4-6-4-4-6-11-|
C|-3-5-3-3-5-0--|
G|-----------0--|
Tap to rate this tab
 
# A B C D E F G H I J K L M N O P Q R S T U V W X Y Z