Song name
# A B C D E F G H I J K L M N O P Q R S T U V W X Y Z

Kalio Gayo - Fearless tab

Highlighted       Show chord diagrams
-------------------------------------------------------------------------------
			     Fearless - Kalio Gayo
-------------------------------------------------------------------------------
http://www.kaliogayo.nl/

Tabbed by: Nick Sklias
Email: Zimzum5001@yahoo.com

Tuning: Standard
   Em                                   Am
e|-0-------------------------------------0-------------------------------------|
B|-0-------------------------------------1-------------------------------------|
G|-0-------------------------------------2-------------------------------------|
D|-2-------------------------------------2-------------------------------------|
A|-2-------------------------------------0-------------------------------------|
E|-0-------------------------------------x-------------------------------------|
   Oh little girl what did you want oh proud little girl

                                 B7                          Em
e|-------------------------------2---------------------------0-----------------|
B|-------------------------------0---------------------------0-----------------|
G|-------------------------------2---------------------------0-----------------|
D|-------------------------------1---------------------------2-----------------|
A|-------------------------------2---------------------------2-----------------|
E|-------------------------------0---------------------------0-----------------|
   Have you found what you were looking for? And where is it now?

  Em                                 Am
e|-0---------------------------------0-----------------------------------------|
B|-0---------------------------------1-----------------------------------------|
G|-0---------------------------------2-----------------------------------------|
D|-2---------------------------------2-----------------------------------------|
A|-2---------------------------------0-----------------------------------------|
E|-0---------------------------------x-----------------------------------------|
  What have you found? In a fearless life what have you found?

                              B7                                         B7
e|----------------------------1------------------------------------------1-----|
B|----------------------------0------------------------------------------0-----|
G|----------------------------2------------------------------------------2-----|
D|----------------------------1------------------------------------------1-----|
A|----------------------------2------------------------------------------2-----|
E|----------------------------0------------------------------------------0-----|
 Have you found what you were looking for? A tearless life where are you now?

  Em                                     Am
e|-0-------------------------------------0-------------------------------------|
B|-0-------------------------------------1-------------------------------------|
G|-0-------------------------------------2-------------------------------------|
D|-2-------------------------------------2-------------------------------------|
A|-2-------------------------------------0-------------------------------------|
E|-0-------------------------------------x-------------------------------------|
  Torn proud girl, What did you see? Oh, what did you dream?

                        B7                        Em   
e|----------------------1-------------------------0----------------------------|
B|----------------------0-------------------------0----------------------------|
G|----------------------2-------------------------0----------------------------|
D|----------------------1-------------------------2----------------------------|
A|----------------------2-------------------------2----------------------------|
E|----------------------0-------------------------0----------------------------|
  Do you know what you wanna be? And what are you now?

   Em                                      Am
e|-0---------------------------------------0-----------------------------------|
B|-0---------------------------------------1-----------------------------------|
G|-0---------------------------------------2-----------------------------------|
D|-2---------------------------------------2-----------------------------------|
A|-2---------------------------------------0-----------------------------------|
E|-0---------------------------------------x-----------------------------------|
   What have you found? In a fearless life what have you found?

                             B7                                         Em
e|---------------------------1------------------------------------------0------|
B|---------------------------0------------------------------------------0------|
G|---------------------------2------------------------------------------0------|
D|---------------------------1------------------------------------------2------|
A|---------------------------2------------------------------------------2------|
E|---------------------------0------------------------------------------0------|
Have you found what you were looking for? A tearless life where are you now?

La de da de da la la de da de da.... etc...

Thanks. This is a great gypsy song.

| /  slide up
| \  slide down
| h  hammer-on
| p  pull-off
| ~  vibrato
| +  harmonic
| x  Mute note
===============================================================================
Tap to rate this tab
# A B C D E F G H I J K L M N O P Q R S T U V W X Y Z