Kalmah - Moon Of My Nights tab

Bueno yo solo me se la parte de la guitarra electrica asi que disfruten :D
(INTRO)
---------------------------------------------------------------------------
[--------------------------------------------------]
[--------------------------------------------------]
[--------------------------------------------------]      x2
[--------------------------------------------------]
[9-9-9-12-12-12-12-11-11-11------------------------]
[---------------------------12-12-12-9-9-9-12-12-12]  


[------------------------------------------------------]
[------------------------------------------------------]
[------------------------------------------------------]
[------------------------------------------------------]
[----------12-12-12-11-11-11---------------------------]
[10-10-10--------------------12-12-12-10-10-10-12-12-12]

[----------------------]
[----------------------]
[----------------------]
[----------------------]
[----------------------]
[7-7-7-9-9-9-10-10-10/3]
(VERSO)
---------------------------------------------------------------------------
I thought I knew who you were
But I didn't know myself
Didn't see the things hidden
In my hollowness
Didn't peep round the curtain
Of your exterior
And the crack turned into an edge
That opens between
---------------------------------------------------------------------------
¡¡Para la segunda guitarra hagan lo mismo pero una cuerda mas arriba!!
---------------------------------------------------------------------------
(PRE-CORO) (ultima estrofa guitarras 1 y 2 )

Listen to the wind singing in the grass, my love
As you lay yourself down to rest
Listen to the cry of the river in autumn cold, my dear
Before I close the gates deep down inside

[------------------------------------------------]
[------------------------------------------------]
[9-11-12-11-12-14-12-11-12-11|12|11/9-7-9-11-12-9]
[------------------------------------------------]
[------------------------------------------------]
[------------------------------------------------]
---------------------------------------------------------------------------
(CORO) (guitarra 1 y 2)

You were
Moon of my nights
Moon of my nights

[--------------------------------------------------]
[--------------------------------------------------]
[--------------------------------------------------]      x2
[--------------------------------------------------]
[9-9-9-12-12-12-12-11-11-11------------------------]
[---------------------------12-12-12-9-9-9-12-12-12]  


[------------------------------------------------------]
[------------------------------------------------------]
[------------------------------------------------------]
[------------------------------------------------------]
[----------12-12-12-11-11-11---------------------------]
[10-10-10--------------------12-12-12-10-10-10-12-12-12]

[----------------------]
[----------------------]
[----------------------]
[----------------------]
[----------------------]
[7-7-7-9-9-9-10-10-10/3]
---------------------------------------------------------------------------
(VERSO)

Those secrets that I revealed
Buried in icy bosom
Those words that I've spoken
Taken by the dawn
The strings that were connected
Separated parts left
Read are the rhymes of story
Of the endless poet
----------------------------------------------------------------------------
(PRE-CORO)

Listen to the wind singing in the grass, my love
As you lay yourself down to rest
Listen to the cry of the river in autumn cold, my dear
Before I close gates deep down inside

[------------------------------------------------]
[------------------------------------------------]
[9-11-12-11-12-14-12-11-12-11|12|11/9-7-9-11-12-9]
[------------------------------------------------]
[------------------------------------------------]
[------------------------------------------------]

----------------------------------------------------------------------------
(CORO)

You were
Moon of my nights
Moon of my nights

[--------------------------------------------------]
[--------------------------------------------------]
[--------------------------------------------------]      x2
[--------------------------------------------------]
[9-9-9-12-12-12-12-11-11-11------------------------]
[---------------------------12-12-12-9-9-9-12-12-12]  


[------------------------------------------------------]
[------------------------------------------------------]
[------------------------------------------------------]
[------------------------------------------------------]
[----------12-12-12-11-11-11---------------------------]
[10-10-10--------------------12-12-12-10-10-10-12-12-12]

[----------------------]
[----------------------]
[----------------------]
[----------------------]
[----------------------]
[7-7-7-9-9-9-10-10-10/3]
----------------------------------------------------------------------------
(SOLO)


[------------------------------------------------]
[------------------------------------------------]
[9-11-12-11-12-14-12-11-12-11|12|11/9-7-9-11-12-9]
[------------------------------------------------]
[------------------------------------------------]
[------------------------------------------------]

----------------------------------------------------------------------------
(CORO)

You were
Moon of my nights
Moon of my nights

[--------------------------------------------------]
[--------------------------------------------------]
[--------------------------------------------------]      x2
[--------------------------------------------------]
[9-9-9-12-12-12-12-11-11-11------------------------]
[---------------------------12-12-12-9-9-9-12-12-12]  


[------------------------------------------------------]
[------------------------------------------------------]
[------------------------------------------------------]
[------------------------------------------------------]
[----------12-12-12-11-11-11---------------------------]
[10-10-10--------------------12-12-12-10-10-10-12-12-12]

[----------------------]
[----------------------]
[----------------------]
[----------------------]
[----------------------]
[7-7-7-9-9-9-10-10-10/3]

Eso es todo lo que se...correcciones, tips, consejos. los aceptare gracias ;)
Tap to rate this tab
 
# A B C D E F G H I J K L M N O P Q R S T U V W X Y Z