Song name
# A B C D E F G H I J K L M N O P Q R S T U V W X Y Z

Kalmah - Principle Heroes tab

Kalmah
Heroes to us
Swamp Songs
Tabbed By Kevin Cruz

Tunning Drop-D

D:-------|--------------------|-----|---------------------|
A:-------|--------------------|-----|---------12----10----|
F:-------|--12-9-12-11-9/7-9--|-----|-12-9-12----12----11-|
G:-------|--------------------|-----|---------------------|
C:--2-2--|--------------------|-2-2-|---------------------|
D:--0-0--|--------------------|-0-0-|---------------------|
    . .                         . .

D:-------|--------------------|---|-----------------|
A:-------|--------------------|---|-5---5---7---7---|
F:-------|--12-9-12-11-9/7-9--|---|---7---7---9---9-|
G:-------|--------------------|---|-----------------|
C:--2-2--|--------------------|-2-|-----------------|
D:--0-0--|--------------------|-0-|-----------------|
    . .                         .

D:-------|--------------------|-----|----------------------------|
A:-------|--------------------|-----|---------12----10-----------|
F:-------|--12-9-12-11-9/7-9--|-----|-12-9-12----12----9A.H.-~-~-|
G:-------|--------------------|-----|----------------------------|
C:--2-2--|--------------------|-2-2-|----------------------------|
D:--0-0--|--------------------|-0-0-|----------------------------|
    . .                         . .


D:-------|--------------------|---|-----------------|
A:-------|--------------------|---|-5---5---7---7---|
F:-------|--12-9-12-11-9/7-9--|---|---7---7---9---9-|
G:-------|--------------------|---|-----------------|
C:--2-2--|--------------------|-2-|-----------------|
D:--0-0--|--------------------|-0-|-----------------|
    . .                         .
Tap to rate this tab
# A B C D E F G H I J K L M N O P Q R S T U V W X Y Z