Song name
# A B C D E F G H I J K L M N O P Q R S T U V W X Y Z

Kalmah - Heroes To Us tab

solo for "Heroes to Us" by Kalmah
tabbed by alwaysmetal111, 2007.
few of the notes were hard to hear over the drums, but this should be close.
use at your own risk, ha ha

D|---19ah,T~x8times------------------------------------------------------------|
A|-----------------------------------------------------------------------------|
F|-----------------------------------------------------------------------------|
C|-----------------------------------------------------------------------------|
G|-----------------------------------------------------------------------------|
D|-----------------------------------------------------------------------------|

D|---------------------------------------19nh,Tx3----------------------------|
A|---------------------------------------------------------------------------|
F|------9\8--12-9-12-9-12-9-12-9-12-11T--------------------------------------|
C|---------------------------------------------------------------------------|
G|--9T-----------------------------------------------------------------------|
D|---------------------------------------------------------------------------|

D|15-12-----12---------------------------------------------------------------|
A|-----15-----15-12--15-12----12-----------------12-13-12---12---------------|
F|------------------------15----15-14--12-14-15---------------14-12---14-12--|
C|-------------------------------------------------------------------------14|
G|---------------------------------------------------------------------------|
D|---------------------------------------------------------------------------|

D|---------------------------------------------------------------------------|
A|---------------------------------------------------------------------------|
F|12------------------------------------------------------------------12~----|
C|---14-13--12---------------------------------------------------------------|
G|------------14-13---12------------12-14----12-14-15--------12-14-----------|
D|-----------------------15-15---15-----------------------15-----------------|

D|19-17-15----------19-17-15-----------19-17-15------------19-15-19---15-----|
A|---------19-17-15----------19-17-15------------19-17-15---------------19-17|
F|---------------------------------------------------------------------------|
C|---------------------------------------------------------------------------|
G|---------------------------------------------------------------------------|
D|---------------------------------------------------------------------------|

D|---------------------------------------------------------------------------|
A|16-17-16-----------------------------------------------------17-16---------|
F|---------17-20-17--16-17-16--17-16-14----------------------16------17-16-16|
C|--------------------------------------17-19-17--16m-16m-17-----------------|
G|---------------------------------------------------------------------------|
D|---------------------------------------------------------------------------|

D|---------------------------------------------------------------------------|
A|---------------------------------------------------------------------------|
F|----------------14ah~---------------------------16-14----14----------------|
C|--------14-16-17---------------14-16-17-17/19---------17-------------------|
G|15-14-14--------------14-14-14---------------------------------------------|
D|---------------------------------------------------------------------------|

D|---------------------------------------------------------------------------|
A|15-12-12--12-----------------------------------------------------------15T~|
F|------------14-12----14-12------12-------------------------------------12T~|
C|-------------------14------14-13----12---------------------12----12-14-----|
G|--------------------------------------14-13----12-14--12-14----14----------|
D|--------------------------------------------15-----------------------------|


 T  use tremolo
 /  slide up
 \  slide down
 h  hammer-on
 p  pull-off
 ~  vibrato
 nh natural harmonic
 ah artificial harmonic
 m  Mute note
===========================================================================
Tap to rate this tab
# A B C D E F G H I J K L M N O P Q R S T U V W X Y Z