Song name
# A B C D E F G H I J K L M N O P Q R S T U V W X Y Z

Kalmah - To The Gallows tab

Artist - Kalmah
Song - To The Gallows
Album - The Black Waltz
Year - 2006
Track - 4

I have already contributed this song, but called it 'Bitter Metallica Side'  as I was 
two of kalmah's songs at the same time. Consequently getting a bad rating :(

This song has been tabbed up to the 3rd riff. It's dropped 1 step down to D.

Tempo - 100
Palm mute  - . (dot under PM note)
Triplets   - |___|
             3 3 3

Vibrato    - ~
Slide down - \

                         Repeat twice||-Riff 1
d:-----------------------------------||------------------------------|
A:-----------------------------------||o-----------------------------|
F:-----------------------------------||------------------2------0----|
C:--------7--7-----------------------||--------5-2-------------------|
G:-7-10-9------10-9----9-------------||o-----2---------3---3--2---2--|
D:------------------10---10-8-8--7-3-||--0-0-------0-0---------------|
                                         . .       . .

d:---------------------------------|------------------------------|
A:---------------------------------|------------------------------|
F:-------------------2-------------|------------------2------0----|
C:-------5-2------------------4----|-------5-2--------------------|
G:-----2-----------3---3--2-5---5--|-----2----------3---3--2---2--|
D:-0-0--------0-0------------------|-0-0--------0-0---------------|
   . .        . .         . .        . .        . .

Guitar 1:
d:----------------------------------||
A:---------------------------------o||
F:----------------------------------||
C:-------5-2------------------------||
G:-----2----------2-3-2-0-2--0-----o||
D:-0-0--------0-0--------------3-2--||
   . .        . . |_______|
                  3 3 3 3 3

On the second repeat of the riff,
Guitar 2: Enters with harmony on E arppegio of Guitar 1
d:-------------------------------12-10-12-15-12~--1210----------19~-|
A:----------------------------------------------------121110--------|
F:----------------------------------------------------------12~\----|
C:------------------------------------------------------------------|
G:------------------------------------------------------------------|
D:------------------------------------------------------------------|

Guitar 1 continues intro riff with solo until the second riff

Guitar 2:      still working on rest of bridge solo
d:-------------------------------------------------|
A:-------------------------------------------------|
F:--1210--101121412101210--10121412101210----------|
C:------12---------------12--------------12107-----|
G:-------------------------------------------------|
D:-------------------------------------------------|

Riff 2
Guitar 1: Play riff four times
d:---------------------------------------------------------|
A:---------------------------------------------------------|
F:-----------------------------------------5-2---2---------|
C:----222-444-5----222-444-5----444-555-7------3---3-2---2-|
G:-----------------------------------------------------3---|
D:-0------------0------------0-----------------------------|

Riff 3
d:-----------------------------------------------------------|
A:-----------------------------------------------------------|
F:-----------------------------------------------------------|
C:------14-10---------14-10---------14-10--------------------|
G:------------14------------12------------10----7-9-10-9--7--|
D:-00000----------0000----------0000----------0-----------10-|
    ....          ....          ....          .
Tap to rate this tab
# A B C D E F G H I J K L M N O P Q R S T U V W X Y Z