Song name
# A B C D E F G H I J K L M N O P Q R S T U V W X Y Z

Kalmah - Tordah tab

-----------------------------------------
           Kalmah - Tordah
-----------------------------------------
Tabbed by: Billy Zimmerman
Email:     billyzimmerman(at)yahoo.com

Tuning: Dropped D

Intro
e---------------------------------------|
B---------------------------------------|
G---------------------------------------|Play 2 times
D---------------------------------------|
A---------------------------------------|
E-5-5-555---5-5-555---5-5-555---5-5-555-|

e---------------------------------------|
B---------------------------------------|
G---------------------------------------|
D---------------------------------------|
A---------------------------------------|
E-8-8-888---8-8-888---8-8-888---8-8-888-|

e---------------------------------------|
B---------------------------------------|
G---------------------------------------|
D---------------------------------------|
A---------------------------------------|
E-7-7-777---7-7-777---7-7-777---7-7-777-|

Riff 1
e---------------------------------------|
B---------------------------------------|
G---7-5---5----------7-5---5------------|Play 8 times
D-5-----8---8-7-8--5-----8---8-7--------|
A---------------------------------------|
E---------------------------------------|

Riff 2
e---------------------------------------|
B---------------------------------------|
G---------------------------------------|
D---------------------------------------|
A---------------------------------------|
E-5-5-555---5-5-555---5-5-555---5-5-555-|

e---------------------------------------|
B---------------------------------------|
G---------------------------------------|
D---------------------------------------|
A---------------------------------------|
E-8-8-888---8-8-888---7-7-777---7-7-777-|

Riff 3
e-----------------------------|
B-----------------------------|
G---7-5-7-5-------7-5-7-5-----|Play 8 times
D-5---------8-7-5---------8-7-|
A-----------------------------|
E-----------------------------|

Riff 4
e-------------------------------------------------------------------------|
B-------------------------------------------------------------------------|
G-------------------------------------------------------------------------|Play 4 times
D-------------------------------------------------------------------------|
A-5-------------------8-----------------8---------8---------7---------8757|
E-5-5-555---5-5-555---8-5-555---5-5-555-8-5-555---8-5-555---7-5-555---8757|

Riff 5
Play this with the strings partially mutedb once.
Then 4 times letting the strings ring out.
e------------------|               e------------------|
B------------------|               B------------------|
G------------------|Play 3 times   G----------------9-|Play this the 4th time
D-5588775577554455-|               D-558877557755445--|
A------------------|               A------------------|
E------------------|               E------------------|

Riff 6
e-----------------|
B-----------------|
G-----------------|Play 16 Times
D-----------------|(Solo starts in the middle of this)
A-2-2-2222-2-2-03-|
E-2-2-2222-2-2-03-|

Then go into "riff 4" 4 times for the rest of the solo.
Pause for a sec then play "riff 4" 4 more times before going into "riff 5" again, and 
bak into riff 1 8 times.


That's it.  This is my first ever attempt at a tab.  I may at sometime try and 
the solo but I'm a drummer, not a guitarist.  I searched all over the net for this tab with no 
thats why I decided to try and do it myself.  Even if it's not 100% it should get you going.
Tap to rate this tab
# A B C D E F G H I J K L M N O P Q R S T U V W X Y Z