Song name
# A B C D E F G H I J K L M N O P Q R S T U V W X Y Z

Kalmah - Hallow Heart tab

Kalmah
hallow heart intro
tabbed by; Nate Pritchett


this is all i got so far, im workin the the solo



intro starts QUIET at :10
e|-------------------------------------|
b|-7----7----7---6-7---7----7----------|
g|---88---88---8--8-8----88---88-------|
D|-------------------------------------|
A|-------------------------------------|
D|-------------------------------------|

e|------------------------------------------------------------|
b|-11---9---11--12----12----12---11---9---11----11------------|
g|----8---8---8----88----88---88----8---8----88----88---------|
D|------------------------------------------------------------|
A|------------------------------------------------------------|
D|------------------------------------------------------------|

e|----------------------------------|
b|----------------------------------|
g|--6(6) 7-8------------------------|
D|----------------------------------|
A|----------------------------------|
D|----------------------------------|
Tap to rate this tab
 
# A B C D E F G H I J K L M N O P Q R S T U V W X Y Z