Song name
# A B C D E F G H I J K L M N O P Q R S T U V W X Y Z

Kalus - Where I Need To Be tab

song name Where I need to be

By: TAB





#----------------------------------PLEASE NOTE---------------------------------#
#This file is the author's own work and represents their interpretation of the #
#song. You may only use this file for private study, scholarship, or research. #
#------------------------------------------------------------------------------#


  
                     Kalus ...... Where I need to be

                     From the Album ..The 13th Step
                     

Transcribed by: TAB

For Questions, Comments, or Corrections contact
   Tab1977@verizom.net




..  - palm mute          /  - slide up to
 \  - slide down to      ~  - vibrato
 h  - hammer on          b  - bend
 p  - pull off            Suffixes for bend
                          ph - pinch harmonic
                           f - full bend    h - half bend
*  - see comment           r - release      t - tap bend
X  - percussion mute       ~ - vibrato bend
@  - slight palm mute     () - ghost note, sustained note
                          WB///- wammy bar 3 times 

Tune Gtr to E standard tuning


  Riff A
 E|-------------------------------------------------------------------------|
 B|-------------------------------------------------------------------------|
 G|-------------------------------------------------------------------------|
 D|---------------------------------------------------------------------9---|
 A|-------------------------------------------------------------------------|
 E|--0--0-0-8-8-7-----0--0-0-8-8-7---------0--0-0-8-8-7-----0--0-0-8-8------|
                                 WB///                                  WB///
  Riff B
  |--------------------------------------------------|
  |--------------------------------------------------|
  |--------------------------------------------------|
  |--------------------------------------------------|
  |--------------------------------------------------|
  |-0-0-0--8-8-7--8-8-8-7---0-0-0--8-8-7--8-8-8-7----|  repeat 2 times 

  Riff C
  |--------------------------------------------------------------|
  |--------------------------------------------------------------|
  |--------------------------------------------------------------|
  |--------4-4--3----3-3-3---4-----------4-4--3----3-3-3---4-----|
  |--------2-2--1----1-1-1---2-----------2-2--1----1-1-1---2-----| 
  |-0-0-0--------------------------0-0-0-------------------------|    repeat 2 times 
    .....                          .....
Tap to rate this tab
# A B C D E F G H I J K L M N O P Q R S T U V W X Y Z