Song name
# A B C D E F G H I J K L M N O P Q R S T U V W X Y Z

Kamagata Eiichi - Jinsei Wa Belt Conveyor No Youni Nagareru tab

-------------------------------------------------------------------------------
	Jinsei Wa Belt Conveyor no youni nagareru - Kamagata Eiichi
-------------------------------------------------------------------------------
Tabbed by: Vick
Email: joshua_rg470@yahoo.com

Tuning: Standard
hey all. this is my 1st tab :)
please provide some feedback. thank you

Clean: Guitar 1
e-----------------|-------------------|
B-----------------|-------------------|
G--4---6-------4--|--4---6---9\-8\-6--|
D--4---6---6---4--|--4---6---9\-8\-6--|
A--2---4---6---2--|--2---4---7\-6\-4--|
E----------4------|-------------------|


Clean: Guitar 2
e----------------------------------|--------------------------|
B-----------------5-4-----5/7--7/9-|--9-7-5-4-----5/7-5-4-----|
G------4--(6)---------6-4----------|----------6-4---------6-4-|
D--4-6-----------------------------|--------------------------|
A----------------------------------|--------------------------|
E----------------------------------|--------------------------|

----------------------|------7--9--7----9-7-------------------|
-7/9-7-5-4-----5-4----|--7h9----------------9-7-9-5--7-7/9----|
-----------6-4-----6--|---------------------------------------|
----------------------|---------------------------------------|
----------------------|---------------------------------------|
----------------------|---------------------------------------|

----------|-----------------------------7-9-------------------|
---5-4----|-----5-7---------5-7-----7h9-----9---9-11-12-------|
-------6--|-4h6-----6---4h6-----6-----------------------------|
----------|---------------------------------------------------|
----------|---------------------------------------------------|
----------|---------------------------------------------------|


Distortion: Guitar 1
-----------------------------------------|
-----------------------------------------|
---x--x--4--6-----4----4--6--9-/11-\6----|
---x--x--4--6--6--4----4--6--9-/11-\6----|
---x--x--2--4--6--2----2--4--7-/9--\4----|
---------------4-------------------------|


Distortion: Guitar 2
------------------------------------------------------------------------|
---9~--12-9-------------------------------------------------------------|
--------------11-9--11p9-----------------------------9-8------9/11-9----|
-------------------------11-9-------9-11-9------9-11-----11-9--------11-|
-------------------------------9-11--------9-11-------------------------|
------------------------------------------------------------------------|

-------------------------------9-11-11-12-12-12-14-14-------------------|
----------------------12-9-12-------------------------------------------|
--------9-11-9--11/13---------------------------------------------------|
---9-11-----------------------------------------------------------------|
------------------------------------------------------------------------|
------------------------------------------------------------------------|

---16-18-18-19-19-19-18-16----9--11--12--|
------------------------------9--11--12--|
-----------------------------------------|
-----------------------------------------|
-----------------------------------------|
-----------------------------------------|


| /  slide up
| \  slide down
| h  hammer-on
| p  pull-off
| ~  vibrato
| +  harmonic
| x  Mute note
Tap to rate this tab
# A B C D E F G H I J K L M N O P Q R S T U V W X Y Z