Song name
# A B C D E F G H I J K L M N O P Q R S T U V W X Y Z

Kamelot - Elizabeth Ii Requiem For The Innocent tab

This is  the intro and the main riff of Elizabeth ii:Requiem For The Innocent.

Tabbed by:Rawk Hawk

e|--------------------------------------------------|
B|--------------------------------------------------|
G|--5-4-------7-6-7-6-------5-4-5-4-------5-4-------|
D|-------5-4-----------7-6-----------5-4------3/9\3-|
A|--------------------------------------------------|
E|--------------------------------------------------|

e|--------------------------------------------------|
B|--------------------------------------------------|
G|--5-4-------9-8-9-8-------5-4-5-4-------5-4-------|
D|-------5-4-----------9-8-----------5-4------3/9\3-|
A|------------------------------------------------3-|
E|--------------------------------------------------|
Tap to rate this tab
# A B C D E F G H I J K L M N O P Q R S T U V W X Y Z