Song name
# A B C D E F G H I J K L M N O P Q R S T U V W X Y Z

Kamelot - Epilogue tab

Kamelot - 2nd Solo (1st On the Way!!!)
Arranged for 1 acoustic guitar hoping to spice it up with more
and possibly a guitar pro track with the full song!!!!

This is one of my first tabs so don't be surprised if its not 100% accurate
Please send me corrections or other tabs to the song
my email is Sonataarctica707@hotmail.com
Tabbed by David W. Simmons 

Tuning - Standard

Solo 2

E |--------------------1--|--------1--1h3--1------|
B |--------1-3----1-3-----|-----3-------------3---|
G |-0--0-3------3---------|--3--------------------|
D |-----------------------|-----------------------|
A |-----------------------|-----------------------|
E |-----------------------|-----------------------|

E |-----------------------|-----------------------|
B |-------1-3-1h3p1-------|-----------------------|
G |--0--3------------3-2--|---3h5p3\2--0----------|
D |-----------------------|---------------3-------|
A |-----------------------|-----------------------|
E |-----------------------|-----------------------|

E |--------------------1--|-----6--5--1h3--1------|
B |--------1-3----1-3-----|-------------------3---|
G |-0--0-3------3---------|--3--------------------|
D |-----------------------|-----------------------|
A |-----------------------|-----------------------|
E |-----------------------|-----------------------|

E |-----------------------|-----------------------|
B |-------1-3-1h3p1-------|-----------------------|
G |--0--3------------3-2--|---3h5p3\2--0----------|
D |-----------------------|---------------3-------|
A |-----------------------|-----------------------|
E |-----------------------|-----------------------|

E |--------------------1--|--------1--1h3--1------|
B |--------1-3----1-3-----|-----3-------------3---|
G |-0--0-3------3---------|--3--------------------|
D |-----------------------|-----------------------|
A |-----------------------|-----------------------|
E |-----------------------|-----------------------|

E |-----------------------|-----------------------|
B |-------1-3-1h3p1-------|-----------------------|
G |--0--3------------3-2--|---3h5p3\2--0----------|
D |-----------------------|---------------3-------|
A |-----------------------|-----------------------|
E |-----------------------|-----------------------|

E |--------------------1--|-----6--3h5p3--1-------|
B |--------1-3----1-3-----|-------------------3---|
G |-0--0-3------3---------|--3--------------------|
D |-----------------------|-----------------------|
A |-----------------------|-----------------------|
E |-----------------------|-----------------------|

E |-----------------------|-----------------------|
B |-------1-3-1h3p1-------|-----------------------|
G |--0--3------------3-2--|---3h5p3\2--0----------|
D |-----------------------|---------------3-------|
A |-----------------------|-----------------------|
E |-----------------------|-----------------------|

Repeat Until End!
Tap to rate this tab
# A B C D E F G H I J K L M N O P Q R S T U V W X Y Z