Song name
# A B C D E F G H I J K L M N O P Q R S T U V W X Y Z

Kamelot - A Feast For The Vain tab

A FEAST FOR THE VAIN
by Kamelot


e|-----------------------------------------|
B|-----------------------------------------|
G|------11---------------------------------|
D|--/11-----11-12-14--12-11----11-12-11/4~-|
A|--------------------------14-------------|
E|-----------------------------------------|

e|-----------------------------------------|
B|-----------------------------------------|
G|------11---------------------------------|
D|--/11-----11-12-14--12-11----11-12-11/16-|
A|--------------------------14-------------|
E|-----------------------------------------|

e|-----------------------------------------|
B|-----------------------------------------|
G|------11---------------------------------|
D|--/11-----11-12-14--12-11----11-12-11/4~-|
A|--------------------------14-------------|
E|-----------------------------------------|

e|---------------------------------------------|
B|---------------------------------------------|
G|------11-------------------------------------|
D|--/11-----11-12-14--12-11----11-12-11/16~15~-|
A|--------------------------14-----------------|
E|---------------------------------------------|

end intro
Tap to rate this tab
 
# A B C D E F G H I J K L M N O P Q R S T U V W X Y Z