Song name
# A B C D E F G H I J K L M N O P Q R S T U V W X Y Z

Kamelot - Love You To Death tab

|-----------------------------------------------------------------------------------|
|-13---------------------------------------------13-16--13--------------------------|
|----15-13-15-13-12-13--12----12-10--10-12-13-15-----------15-13-15-13-12-13--12----|
|--------------------------13----------------------------------------------------13-|
|-----------------------------------------------------------------------------------|
|-----------------------------------------------------------------------------------|



|----------------------------------------------------------------------------------------16-15-16|
|---------13--------------------------------------------------13----13-14-13-14-16-14-16---------|
|--10--10----15-13-12-13--12----12-------12-13-12-13-15-13-15----15------------------------------|
|10---------------------------13----13-15--------------------------------------------------------|
|------------------------------------------------------------------------------------------------|
|------------------------------------------------------------------------------------------------|


|---------------------------------------------13---13-16-13-16-18-16-18-21|
|--------------------13--13-14-13-14-16-14-16---16------------------------|
|--13-12-13-15-13-15---15-------------------------------------------------|
|-------------------------------------------------------------------------|
|-------------------------------------------------------------------------|
|-------------------------------------------------------------------------|
Tap to rate this tab
# A B C D E F G H I J K L M N O P Q R S T U V W X Y Z