Kamelot - The Zodiac tab

Half-step Standard
Eb|-----------------------------------------------|
Bb|-----------------------------------------------|
Gb|-----------10~~~~------------------------------|
Db|6-7~~~~6-7-------8-7~~~-5--------------8-7-5---|
Ab|--------------------------8~~~~-7-5~~~~------8-|
Eb|-----------------------------------------------|

Eb|------------------------------------------------|
Bb|------------------------------------------------|
Gb|-----------10~~~~-------------------------------|
Db|6-7~~~~6-7-------8-7~~~7-5----------------------|
Ab|---------------------------8~~~~-7-5~~~~8-7-5p0-|
Eb|------------------------------------------------|
Tap to rate this tab
 
# A B C D E F G H I J K L M N O P Q R S T U V W X Y Z