Song name
# A B C D E F G H I J K L M N O P Q R S T U V W X Y Z

Kamelot - Hunters Season tab

e|-----------------------9--/11---------------------------------------------------|
B|---------------------9--------12------------------------------------------------|
G|---------------6-8-9-------------13------------9---9/11--11^13^14^13^11 9-8-9\6-|
D|-------------6----------------------13-11---/9---9------------------------------|
A|-/4---4-6-7---------------------------------------------------------------------|
E|----4---------------------------------------------------------------------------|

e|-------------------------------------/16\11-------14-12h14p12p11\9------12-----12/14--12^16^12|
B|-----------14--16-17-16h17p16p14----------/12-----------------------/12----12-----------------|
G|-------13-------------------------------------------------------------------------------------|
D|-11-14----------------------------------------------------------------------------------------|
A|----------------------------------------------------------------------------------------------|
E|----------------------------------------------------------------------------------------------|

e-11h12p11\7h9p7\4-|
B------------------|
G------------------|
D------------------|
A------------------|
E------------------|

Legend:


/x - Side up from any fret you like to the fret shown
x/x or x\x - Slide up (/) from one fret to another or slide down (\)
ho - Hammer on
po - Pull off
^ - bend up (or release an already bent note) to the note at the fret shown

retired from: http://www.youtube.com/watch?v=GIFaJY5FEYE
Tap to rate this tab
# A B C D E F G H I J K L M N O P Q R S T U V W X Y Z