Song name
# A B C D E F G H I J K L M N O P Q R S T U V W X Y Z

Kamelot - The Fourth Legacy tab

The Fourth Legacy
Kamelot
Track number 2 from The Fourth Legacy (2000)
Tabbed By: Mariano Arnaiz
Anything to : marianoarnaiz@hotmail.com
Tunning: 1/2 step down (EbAbDbGbBbeb)



Intro

eb||----------------------|----------------------||----------------------|------------------------------||
Bb||----------------------|----------------------||----------------------|------------------------------||
Gb||----------------------|----------------------||----------------------|------------------------------||  x3
Db||--4-4--4h6h7--6--4-6--|--6-6--6h7h9--7--6-7--||--4-4--4h6h7--6--4-6--|--12p11p9-11p9p7-9p7p6-7p6-4--||
Ab||----------------------|----------------------||----------------------|------------------------------||
Eb||----------------------|----------------------||----------------------|------------------------------||

eb||----------------------|----------------------||------------------------|-----------------------||
Bb||----------------------|----------------------||------------------------|-----------------------||
Gb||----------------------|----------------------||------------------------|--11-9--9-7--7-6--6-4--||
Db||--4-4--4h6h7--6--4-6--|--6-6--6h7h9--7--6-7--||--9--9-9h11h12-11-9-11--|--11-9--9-7--7-6--6-4--||
Ab||----------------------|----------------------||------------------------|-----------------------||
Eb||----------------------|----------------------||------------------------|-----------------------||


Verse 1

eb||------------------|----------------------|--------------------------------------|-------------------------||
Bb||------------------|----------------------|--------------------------------------|-------------------------||
Gb||------------------|----------------------|--6-------7------6------4---2---------|-------------------------||
Db||--4---------------|--6----7--------------|--6-------7------6------4---2---4-----|--4-4-4-44---------------||
Ab||--4---------------|--6----7--------------|--4-------5------4------2---0---4-----|--4-4-4-44--2-4-5-4-2-0--||
Eb||--2---------------|--4----5--------------|--------------------------------2-----|--2-2-2-22---------------||
     Settle...journey   sail across ...seas     carried by the spirit of the brave 

eb||------------------|----------------------|--------------------------------------|-------------------------||
Bb||------------------|----------------------|--------------------------------------|-------------------------||
Gb||------------------|----------------------|--6-------7------6------4---2---------|-------------------------||
Db||--4---------------|--6----7--------------|--6-------7------6------4---2---4-----|--4-4-4-44--4-6-7-6-4-2--||
Ab||--4---------------|--6----7--------------|--4-------5------4------2---0---4-----|--4-4-4-44--2-4-5-4-2-0--||
Eb||--2---------------|--4----5--------------|--------------------------------2-----|--2-2-2-22---------------||
     Join ...... now    and pledge ... heart    a history that no one can forsake


Pre-Chorus

eb||---------------------|------------------||
Bb||---------------------|------------------||
Gb||--7----------4-------|--7---------6--4--||
Db||--7----------4-------|--7---------6--4--||
Ab||--5----------2-------|--5---------4--2--||
Eb||---------------------|------------------||
    Flying ...  oblivion   rising...skyyyyyy 
 

Chorus
eb||--------------------|--------------------------|-------------------------|--------------|------------||
Bb||--------------------|--------------------------|-------------------------|--------------|------------||
Gb||-------------6------|--------4-------------2---|---7-------------6-------|--4-----2-----|------------||
Db||--4----------6------|--------4-------------2---|---7-------------6-------|--4-----2-----|--4-4-4-44--||
Ab||--4----------4------|--------2-------------0---|---5-------------4-------|--2-----0-----|--4-4-4-44--||
Eb||--2-----------------|--------------------------|-------------------------|--------------|--2-2-2-22--||
     You ... Allegiance  like a beacon in the night...searching for salvation  reach inside 

eb||--------------------|--------------------------|-------------------------------||
Bb||--------------------|--------------------------|-------------------------------||
Gb||-------------6------|--------4-------------2---|---7-------------6----6-4-2----||
Db||--4----------6------|--------4-------------2---|---7-------------6----6-4-2-4--||
Ab||--4----------4------|--------2-------------0---|---5-------------4----4-2-0-4--||
Eb||--2-----------------|--------------------------|----------------------------2--||
   there's... approaching     a fire   to be seen   following The Fourth Legacy 


Pre-verse

eb||----------------------|----------------------||----------------------|------------------------------||
Bb||----------------------|----------------------||----------------------|------------------------------||
Gb||----------------------|----------------------||----------------------|------------------------------||  
Db||--4-4--4h6h7--6--4-6--|--6-6--6h7h9--7--6-7--||--4-4--4h6h7--6--4-6--|--12p11p9-11p9p7-9p7p6-7p6-4--||
Ab||----------------------|----------------------||----------------------|------------------------------||
Eb||----------------------|----------------------||----------------------|------------------------------||

eb||----------------------|----------------------||------------------------|-----------------------||
Bb||----------------------|----------------------||------------------------|-----------------------||
Gb||----------------------|----------------------||------------------------|--11-9--9-7--7-6--6-4--||
Db||--4-4--4h6h7--6--4-6--|--6-6--6h7h9--7--6-7--||--9--9-9h11h12-11-9-11--|--11-9--9-7--7-6--6-4--||
Ab||----------------------|----------------------||------------------------|-----------------------||
Eb||----------------------|----------------------||------------------------|-----------------------||

eb||------------------------------||
Bb||------------------------------||
Gb||--12-11-9-11-9-7-9-7-6-7-6-4--||  
Db||--12-11-9-11-9-7-9-7-6-7-6-4--||
Ab||--/////////Tremolo//////////--||
Eb||--/////////Picking//////////--||


Verse 2 (exactly as verse 1, but just play it once)

eb||------------------|----------------------|--------------------------------------|-------------------------||
Bb||------------------|----------------------|--------------------------------------|-------------------------||
Gb||------------------|----------------------|--6-------7------6------4---2---------|-------------------------||
Db||--4---------------|--6----7--------------|--6-------7------6------4---2---4-----|--4-4-4-44--4-6-7-6-4-2--||
Ab||--4---------------|--6----7--------------|--4-------5------4------2---0---4-----|--4-4-4-44--2-4-5-4-2-0--||
Eb||--2---------------|--4----5--------------|--------------------------------2-----|--2-2-2-22---------------||

Pre-Chorus
Chorus

Orchestra and vocal bridge (no guitar)

Pre-solo riff

eb||----------------|--------------------------------||
Bb||----------------|--------------------------------||
Gb||----------------|--------------------------------||
Db||--5-4-5--7-6-7--|--11-9-11---11p9p7-9p7p6-4h6h7--||
Ab||----------------|--------------------------------||
Eb||----------------|--------------------------------||


Guitar solo (sorry i didnt have enought time ti figure this out)

Verse 1 (exactly as verse 1)
eb||------------------|----------------------|--------------------------------------|-------------------------||
Bb||------------------|----------------------|--------------------------------------|-------------------------||
Gb||------------------|----------------------|--6-------7------6------4---2---------|-------------------------|| x2
Db||--4---------------|--6----7--------------|--6-------7------6------4---2---4-----|--4-4-4-44--4-6-7-6-4-2--||
Ab||--4---------------|--6----7--------------|--4-------5------4------2---0---4-----|--4-4-4-44--2-4-5-4-2-0--||
Eb||--2---------------|--4----5--------------|--------------------------------2-----|--2-2-2-22---------------||

Pre-Chorus
Chorus (until outro cames in)


eb||----------------------|----------------------||----------------------|------------------------------||
Bb||----------------------|----------------------||----------------------|------------------------------||
Gb||----------------------|----------------------||----------------------|------------------------------||  x3
Db||--4-4--4h6h7--6--4-6--|--6-6--6h7h9--7--6-7--||--4-4--4h6h7--6--4-6--|--12p11p9-11p9p7-9p7p6-7p6-4--||
Ab||----------------------|----------------------||----------------------|------------------------------||
Eb||----------------------|----------------------||----------------------|------------------------------||

eb||----------------------|----------------------||------------------------|-----------------------||
Bb||----------------------|----------------------||------------------------|-----------------------||
Gb||----------------------|----------------------||------------------------|--11-9--9-7--7-6--6-4--||
Db||--4-4--4h6h7--6--4-6--|--6-6--6h7h9--7--6-7--||--9--9-9h11h12-11-9-11--|--11-9--9-7--7-6--6-4--||
Ab||----------------------|----------------------||------------------------|-----------------------||
Eb||----------------------|----------------------||------------------------|-----------------------||

eb||------------------||
Bb||------------------||
Gb||--11--9--7--6--4--||
Db||--11--9--7--6--4--||
Ab||--9---7--5--4--2--||
Eb||------------------||
Tap to rate this tab
# A B C D E F G H I J K L M N O P Q R S T U V W X Y Z