Song name
# A B C D E F G H I J K L M N O P Q R S T U V W X Y Z

Kamelot - Siege tab

Here is another way to play the intro.
This version is better than the previous posted one.
Fig. 1
e:|----------------------------------------------------|
B:|------------------------------------8---------------|
G:|------------------10--9--10--9--10-----10--10--9~~--|
D:|--------7--9--10~~----------------------------------|
A:|--7--7----------------------------------------------|
E:|----------------------------------------------------|

Fig. 2
e:|----------------------------------------------------------|
B:|---------------------------------------8------------------|
G:|------------------10~~--9--7--9--7--9-----10--9--9--7~~---|
D:|----------10--12------------------------------------------|
A:|--10--10--------------------------------------------------|
E:|----------------------------------------------------------|
   Repeat Fig. 1 AND Fig. 2 Once
Tap to rate this tab
 
# A B C D E F G H I J K L M N O P Q R S T U V W X Y Z