Song name
# A B C D E F G H I J K L M N O P Q R S T U V W X Y Z

Kamelot - March Of Mephisto tab

Artist: Kamelot
Album: The Black Halo
Song: March of Mephisto
Tab By: BFMV_OWN

Intro |this 2x|
e---------|---------|---------|---------|---------|---------|---------|
B---------|---------|---------|---------|---------|---------|---------|
G-66666666|-55555555|-55555566|-66666688|-11>>>>>>|-10>>>>>>|-66666666|
D-xxxxxxxx|-xxxxxxxx|-xxxxxxxx|-xxxxxxxx|-xxxxxxxx|-xxxxxxxx|-xxxxxxxx|
A-44444444|-33333333|-33333344|-44444466|-99999999|-88888888|-44444444|
E---------|---------|---------|---------|---------|---------|---------|

Verse 1 (played longer than u think)
e-------------------------------------------------------------------------|
B-------------------------------------------------------------------------|
G-66666666----------------------------66666666----------------------------|
D-66666666-88888888-44444444-66666666-66666666-44444444-88888888-66666666-|
A-44444444-88888888-44444444-66666666-44444444-44444444-88888888-66666666-|
E----------66666666-22222222-44444444----------22222222-66666666-44444444-|

Pre-Chorus: (guitar 1: clean)
|during PM|
e---|---|---|---|---------|
B---|---|---|---|---------|
G-6~|---|---|---|--6-6-6-6|
D-6~|-6~|-4~|-4~|-4-4-4-4-|
A-4~|-6~|-4~|-4~|---------|
E---|-4~|-2~|-2~|---------|

Pre-Chorus: (guitar 2: distorted)
e---|---|---|---|---------|---------|---------|-----------|
B---|---|---|---|---------|---------|---------|-----------|
G---|---|---|---|-66666666|---------|---------|-----------|
D---|---|---|---|-66666666|-66666666|-44444444|-44444444--|
A---|---|---|---|-44444444|-66666666|-44444444|-44444444--|
E---|---|---|---|---------|-44444444|-22222222|-22222222--|
PM--------------------------------------------------------|

Chorus (played slower)
e----------------------------|
B----------------------------|
G-66666666-------------------|
D-66666666-66666666-44444444-|
A-44444444-66666666-44444444-|
E----------44444444-22222222-|

Intro

Verse 2 (played longer than u think)
Clean distorted
e---------------------------------------------|
B---------------------------------------------|
G-6-------66666666----------------------------|
D-6-8-4-6-66666666-44444444-88888888-66666666-|
A-4-8-4-6-44444444-44444444-88888888-66666666-|
E---6-2-4----------22222222-66666666-44444444-|
Held out PM-----------------------------------|

Chorus 2 (played slower)
e--------------------------------------------------------------|
B--------------------------------------------------------------|
G-66666666-------------------6666------66666666----------------|
D-66666666-66666666-44444444-6666-6666-66666666-66666666-4~-6~-|
A-44444444-66666666-44444444-4444-6666-44444444-66666666-4~-6~-|
E----------44444444-22222222------4444----------44444444-2~-4~-|

Bridge
|clean x3---------------|
e-----|-----|-----|-----|
B-----|-----|-----|-----|
G-----|-----|-----|-----|
D---6~|-----|-----|-----|
A-4~--|---6~|---4~|---4~|
E-----|-4~--|-2~--|-2~--|

“let go!!!” (played slower)
e--------------------------------------------------------|
B--------------------------------------------------------|
G-66666666-------------------6666------66666666----------|
D-66666666-66666666-44444444-6666-6666-66666666-66666666-|
A-44444444-66666666-44444444-4444-6666-44444444-66666666-|
E----------44444444-22222222------4444----------44444444-|

Other guitar strums C# constantly (until held out notes)
G-6-
D-x-
A-4-
E---

Then (held out notes)
e----------------------------|
B----------------------------|
G-------------6------------6-|
D-4---6---4---6----4---6---6-|
A-4---6---4---4----4---6---4-|
E-2---4---2--------2---4-----|
(acoustic) end
Tap to rate this tab
# A B C D E F G H I J K L M N O P Q R S T U V W X Y Z