Song name
# A B C D E F G H I J K L M N O P Q R S T U V W X Y Z

Kamelot - Haunting Somewhere In Time tab

Help us improve GuitareTab! Take a short survey!
THE HAUNTING (SOMEWHERE IN TIME) 
Kamelot feats Simone Simons
Track number 3 from Black Halo (2005)
Tabbed By: Mariano Arnaiz
Anything to : marianoarnaiz@hotmail.com
Tunning: 1/2 step down drop Db (DbAbDbGbBbeb)

Intro: Theres no guitar in the intro, so just wait until the verse starts.

Verse 1

eb|-------------------|-----------------------|
Bb|-------------------|-----------------------|
Gb|-------------------|----------3-3-----/(5)-|
Db|--0-0--------------|----------3-3----------|
Ab|--0-0--------------|----------1-1....../3--|
Eb|--0-0--------------|-----------------------|
PM .....                         . .
    Merely ... voice    Made me believe... her

eb|-------------------|-----------------------------------|
Bb|-------------------|-----------------------------------|
Gb|-------------------|-------3-3-------------------------|
Db|--0-0--------------|-------3-3--------------------P.H.-|
Ab|--0-0--------------|-------1-1---------3-3-3-/.5--*5*--|
Eb|--0-0--------------|-----------------------------------|
PM .....                     .....
    Just ... disturbs   ...my inner peace

eb|----------------|-----------------------|
Bb|----------------|-----------------------|
Gb|----------------|----------3-3----------| x2
Db|--0-0-----------|----------3-3----------|
Ab|--0-0-----------|----------1-1....../3--|
Eb|--0-0-----0-0---|-----------------------|
PM .....    .....                   .....
   One .... find      Just a trace .... soul
   Once ... was all  Then .......... beliefs

Pre-chorus
eb|-------------------------------------------|
Bb|-------------------------------------------|
Gb|-------------------------------------------|
Db|--0----------------------------------------|
Ab|--0----------------------------------------|
Eb|--0.............................-----------|
   One cold winter's night, I may follow her voice to the river
   Leave me for now and forever, Leave while you can

Chorus
eb|-------------------------------------------------------------|
Bb|-------------------------------------------------------------|
Gb|---------------------------5-------5----10---------5---------| 
Db|--0-------0~--3-------3~---5-5-5-5-5----10-101010--5-5-5-5---|
Ab|--0-0-0-0-0~--3-3-3-3-3~---3-3-3-3-3~---8--8-8-8---3-3-3-3-~-|
Eb|--0-0-0-0-0~--3-3-3-3-3~-------------------------------------|
   Somewhere...find  .....  again  ....  wind  .... earth

|-----------------------------------------------------------------------|
|-----------------------------------------------------------------------|
|---------------------------5-------5----10---------9-------------------| 
|--0-------0~--3-------3~---5-5-5-5-5----10-101010--10-1010-------------|
|--0-0-0-0-0~--3-3-3-3-3~---3-3-3-3-3~---8--8-8-8---7--7-7---7-8-7-/10--|
|--0-0-0-0-0~--3-3-3-3-3~-----------------------------------------------|
   Somewhere   virtues      left........no idea of the lyrics...........

|-------------------------------------------------------------|
|-------------------------------------------------------------|
|---------------------------5-------5----10---------5---------| 
|--0-------0~--3-------3~---5-5-5-5-5----10-101010--5-5-5-5---|
|--0-0-0-0-0~--3-3-3-3-3~---3-3-3-3-3~---8--8-8-8---3-3-3-3-~-|
|--0-0-0-0-0~--3-3-3-3-3~-------------------------------------|
   I           liar         debate       forces     fuelled
|---------------------------------------------------------------------|
|---------------------------------------------------------------------|
|---------------------------5-------5----10---------9-----------------| 
|--0-------0~--3-------3~---5-5-5-5-5----10-101010--10----------------|
|--0-0-0-0-0~--3-3-3-3-3~---3-3-3-3-3~---8--8-8-8---7---7-8-7-/12--~--|
|--0-0-0-0-0~--3-3-3-3-3~---------------------------------------------|
   Hate                                  quietly    go            sleep


Pre-verse

eb|----------------|----------------------------|-----------------------------|
Bb|----------------|----------------------------|-----------------------------|
Gb|----------------|----------------------------|-----------------------------|
Db|--0-0------0-0--|---0---------0---0-------0--|--0-------------0------------|
Ab|--0-0------0-0--|---0-0-0-1-0-0---0-0-0-0-0--|--0-0-0-1-0-0---0-0-0-3-0-0--|
Eb|--0-0------0-0--|---0-0-0-----0---0-0-0-0-0--|--0-0-0-----0---0-0-0-----0--|

Verse 2

eb|--------------|--------------|-----------------|
Bb|--------------|--------------|-----------------|
Gb|--------------|--------------|-----------------| x4
Db|--0-0----0-0--|--3-3---------|--3-3-3-/-5-5-5--|
Ab|--0-0----0-0--|--1-1------1--|--1-1-1-/-3-3-3--|
Eb|--0-0----0-0--|--------------|-----------------|

Pre-chorus
|----------------------|
|----------------------|
|------3~--------5~----|
|-0~---3~---3~---5~----|
|-0~---1~---3~---3~----|
|-0~--------3~---------|


Chorus
|-------------------------------------------------------------|
|-------------------------------------------------------------|
|---------------------------5-------5----10---------5---------| 
|--0-------0~--3-------3~---5-5-5-5-5----10-101010--5-5-5-5---|
|--0-0-0-0-0~--3-3-3-3-3~---3-3-3-3-3~---8--8-8-8---3-3-3-3-~-|
|--0-0-0-0-0~--3-3-3-3-3~-------------------------------------|
   Somewhere...find  .....  again  ....  wind  .... earth

|-----------------------------------------------------------------------|
|-----------------------------------------------------------------------|
|---------------------------5-------5----10---------9-------------------| 
|--0-------0~--3-------3~---5-5-5-5-5----10-101010--10-1010-------------|
|--0-0-0-0-0~--3-3-3-3-3~---3-3-3-3-3~---8--8-8-8---7--7-7---7-8-7-/10--|
|--0-0-0-0-0~--3-3-3-3-3~-----------------------------------------------|
   Somewhere   virtues      left........no idea of the lyrics...........

|-------------------------------------------------------------|
|-------------------------------------------------------------|
|---------------------------5-------5----10---------5---------| 
|--0-------0~--3-------3~---5-5-5-5-5----10-101010--5-5-5-5---|
|--0-0-0-0-0~--3-3-3-3-3~---3-3-3-3-3~---8--8-8-8---3-3-3-3-~-|
|--0-0-0-0-0~--3-3-3-3-3~-------------------------------------|
   I           liar         debate       forces     fuelled
|---------------------------------------------------------------------|
|---------------------------------------------------------------------|
|---------------------------5-------5----10---------9-----------------| 
|--0-------0~--3-------3~---5-5-5-5-5----10-101010--10----------------|
|--0-0-0-0-0~--3-3-3-3-3~---3-3-3-3-3~---8--8-8-8---7---7-8-7-/12--~--|
|--0-0-0-0-0~--3-3-3-3-3~---------------------------------------------|
   Hate                                  quietly    go            sleep

Bridge 
|------------------------------------------------------------------------|
|------------------------------------------------------------------------|
|------------------------------------------------------------------------|
|--8--------5--------7--------0~---12-10-8------7--------12-10-11--------|
|--8--------5--------7--------0~---12-10-8------7--------12-10-11---1-0--|
|--8--------5--------7--------0~---12-10-8------7--------12-10-11--------|


Guitar solo
|-22------------------------0-0----------------------------------------------------------------------------------------------|
|-----10--10-8-6-5-------8-6-5-5---3-0~~---10-8-6-5-6h8~6~-------------------------------------------------------------------|
|------------------10p9------------------------------------12/.15~~--14h15p14-(14)-12h14p12-(12)-10h12p10-(10)-11h12p11-(11)-|
|----------------------------------------------------------------------------------------------------------------------------|
|----------------------------------------------------------------------------------------------------------------------------|
|----------------------------------------------------------------------------------------------------------------------------|

|-----------1313-12-1313--15-(17)--15fb(17).r(15)--13-12-13-12-10----------------------13---------13----------13-----------12---------|
|--10/15~~---------------------------------------------------------/11-10-11--11h10p11----11h10p11---11h10p11-----11h10p11----7h9-/10-|
|-------------------------------------------------------------------------------------------------------------------------------------|
|-------------------------------------------------------------------------------------------------------------------------------------|
|-------------------------------------------------------------------------------------------------------------------------------------|
|-------------------------------------------------------------------------------------------------------------------------------------|
         T        T        T        T        T
|-------------------------------------------------------------------------------------------------------/15-13-12h13p12-------|
|-10h11-18-10h11-17-10h11-15-10h11-18 10h11-17--11h10p11-8h10p8fb9.r8--8h10p8---------13-15-17-18-17-13-----------------15~~--|
|-----------------------------------------------------------------------------9h10--9-----------------------------------------|
|-----------------------------------------------------------------------------------------------------------------------------|
|-----------------------------------------------------------------------------------------------------------------------------|
|-----------------------------------------------------------------------------------------------------------------------------|


Second Bridge (no guitar either)

Final chorus (key change)
|-------------------------------------------------------------|
|-------------------------------------------------------------|
|---------------------------6-------6----11---------6---------| 
|--1-------1~--4-------4~---6-6-6-6-6----11-111111--6-6-6-6---|
|--1-1-1-1-1~--4-4-4-4-4~---4-4-4-4-4~---9--9-9-9---4-4-4-4-~-|
|--1-1-1-1-1~--4-4-4-4-4~-------------------------------------|
                                                                               
|------------------------------------------------------------------------|
|------------------------------------------------------------------------|
|---------------------------6-------6----11---------10-------------------| 
|--1-------1~--4-------4~---6-6-6-6-6----11-111111--11-1111--------------|
|--1-1-1-1-1~--4-4-4-4-4~---4-4-4-4-4~---9--9-9-9---8--8-8-~--8-9-8-/11--|
|--1-1-1-1-1~--4-4-4-4-4~------------------------------------------------|

|-------------------------------------------------------------|
|-------------------------------------------------------------|
|---------------------------6-------6----11---------6---------| 
|--1-------1~--4-------4~---6-6-6-6-6----11-111111--6-6-6-6---|
|--1-1-1-1-1~--4-4-4-4-4~---4-4-4-4-4~---9--9-9-9---4-4-4-4-~-|
|--1-1-1-1-1~--4-4-4-4-4~-------------------------------------|
                                                                               
|------------------------------------------------------------------------|
|------------------------------------------------------------------------|
|---------------------------6-------6----11---------10-------------------| 
|--1-------1~--4-------4~---6-6-6-6-6----11-111111--11-1111--------------|
|--1-1-1-1-1~--4-4-4-4-4~---4-4-4-4-4~---9--9-9-9---8--8-8-~--8-9-8-/11--|
|--1-1-1-1-1~--4-4-4-4-4~------------------------------------------------|

Guitar Outro (this is played an octave higher, so add 12 frets to each note, i tabbed it this way cause my guitar only have 21 frets )
eb|--6--4-------------------------|--6--4---------------------------------------------------------------|
Bb|--------7-6-7-6-6/9--7-66-4----|--------7-6-7-6-6/9-/11-11fb12.r11--9h11p9--7-7h9p7--6-6h7p6--4-4/6--|
Gb|----------------------------6--|---------------------------------------------------------------------|
Db|-------------------------------|---------------------------------------------------------------------|
Ab|-------------------------------|---------------------------------------------------------------------|
Eb|-------------------------------|---------------------------------------------------------------------|

eb|--6--4-------------------------|
Bb|--------7-6-7-6-6/9--7-66-4----|             then the song starts fading
Gb|----------------------------6--|x2           keep on playing the first part of this ending
Db|-------------------------------|              and improvising a little
Ab|-------------------------------|
Eb|-------------------------------|
Related for Haunting Somewhere In Time tab