Song name
# A B C D E F G H I J K L M N O P Q R S T U V W X Y Z

Kamikazee - Directors Cut Acoustic tab

|---hi, i'm gab and i'm not 100% sure of this----------|
|---tab so if you have comments or suggestions,--------|
|-- just email me at gabvisenio@yahoo.com thanks.--|

tuning: standard

intro
Guitar 1
e|------------------------------------|
b|------------------------------------|
g|-----9---8-6-4-2-----4--------------|
d|-2-2-9---8-6-4-2-8x--4-x8-----------|   x4
a|-2-2-7---6-4-2-0-----2--------------|
e|-0-0--------------------------------|

Guitar 2
e|---------5-4--------5-4-----------|            e|---------5-4--------5-4-------------|
b|-0-5-4-0----0-5-4-0----0-5-4-0---|            b|-0-5-4-0----0-5-4-0----0-5-4-0-------|
g|----------------------------------|            g|------------------------------------|
d|----------------------------------|  ->      d|--------------------------------------|
a|----------------------------------|            a|------------------------------------|
e|----------------------------------|            e|------------------------------------|
=-=

e|---------------------------------|                e|-----------------4-4h5p4-4-4h5p4---|
b|---------------------------------|                b|----------------5-5-----5-5-----5--|
g|-----9---8-6-4--2--2--2-4--444---|              g|-----13--11-9-8----------------------|
d|-2-2-9---8-6-4-------------------|   x2 ->   d|-2-2------------------------------------|
a|-2-2-7---6-4-2-0-00-00-2-22------|              a|-2-2-11--9--7-6----------------------|
e|-0-0-----------------------------|                e|-0-0-------------------------------|

e|----------------7-5-0-5-4-0-4-2----------------|
b|--------------------------------0-7-5-0-4-5-4-0|
g|-----13--11-9-8--------------------------------|
d|-2-2-------------------------------------------|
a|-2-2-11--9--7-6--------------------------------|
e|-0-0-------------------------------------------|

verse1:
Guitar 1
e|---------------------------------|
b|---------------------------------|
g|-9------6-6--4-4--2-----4--------|
d|-9-x8---6-6--4-4--2-x5--4-x5-----| x2
a|-7------4-4--2-2--0-----2--------|
e|---------------------------------|

Guitar 2
|---------5-4---------5-4-7-5-4-5---------5-4------------|
|-0-5-4-0----0-5-4-0------------0-5-4-0----0-5-5-4-4-----|
|--------------------------------------------------------|
|--------------------------------------------------------|
|--------------------------------------------------------|
|--------------------------------------------------------|

|--------------------------------------|
|-5-4-0-2-4-2-0-0-5-4-0-2-4-2-0-0------|
|--------------------------------------|
|--------------------------------------| x2
|--------------------------------------|
|--------------------------------------|

Guitar 1&2
e|------------------------------|
B-------------------------------|
G|------------------------------|
D|-2-2-2-2-2-2-2-2-2-2-2-2-x----|
A|-2-2-2-2-2-2-2-2-2-2-2-2-x----|
E|-0-0-0-0-0-0-0-0-0-0-0-0-x----|

interlude:
Guitar 1
|----------------------------|
|----------------------------|
|-----9---8-6-4-2----4-------|
|-2-2-9---8-6-4-2-x8-4-x8----| x2
|-2-2-7---6-4-2-0----2-------|
|-0-0------------------------|

Guitar 2
e|---------5-4---------5-4-------------|
B|-0-5-4-0-----0-5-4-0-----0-5-4-0-----|
G|-------------------------------------|
D|-------------------------------------| x2
A|-------------------------------------|
E|-------------------------------------|
=-=

|---------------------------------|
|---------------------------------|
|-----9---8-6-4--2--2--2-4--444---|
|-2-2-9---8-6-4-------------------|
|-2-2-7---6-4-2-0-00-00-2-22------|
|-0-0-----------------------------|

|----------------7-5-0-5-4-0-4-2-----------------|
|--------------------------------0-7-5-0-4-5-4-0-|
|-----13--11-9-8---------------------------------|
|-2-2--------------------------------------------|
|-2-2-11--9--7-6---------------------------------|
|-0-0--------------------------------------------|

(repeat verse1)

refrain:
Guitar 1
|-----------------------------------------|
|-----------------------------------------|
|-6--------------------6------------------|
|-6-x8-77-777-777-777-6-x8-7--7--7--7-----|
|-4----77-777-777-777-4----7--7--7--7-----|
|------55-555-555-555------5--5--5--5-----|
=-=

|-----------------------------------------------|
|-----------------------------------------------|
|-6666--------------------6666----4-------------|
|-6666-x2-77-777-777-777-6666-x2-4--------------|
|-4444----77-777-777-777-4444----2--------------|
|----------55-555-555-555-----------------------|

Guitar 2
|------------------------------------------------|
|------------------------------------------------|
|-6666--------------------6666-8-9---------------|
|-6666-x2-77-777-777-777-6666-----7--7--7--7-----|
|-4444----77-777-777-777-4444-6-7-7--7--7--7-----|
|----------55-555-555-555----------5--5--5--5----|
=-=

|----------------------------------|          |------------------------------------|
|-0-5-4-0-5-4-0-5-4-0-5-4-0-5-4-0-|         |-0-7-5-0-7-5-0-7-5-0-7-5-0-7-5-0------|
|----------------------------------|          |------------------------------------|
|----------------------------------|   ->   |--------------------------------------|
|----------------------------------|          |------------------------------------|
|----------------------------------|          |------------------------------------|

|-------------------------------------|
|-0-5-4-0-5-4-0-5-4-0-5-4-0-5-4-0-----|
|---------------------------------4---|
|---------------------------------4---|
|---------------------------------2---|
|-------------------------------------|

chorus
Guitar 1
|---------------------------------|
|---------------------------------|
|-9-------6---4-------------------|
|-9---7---6---4-------------------| x2
|-7---7---4---2-------------------|
|-----5---------------------------|

Guitar 2
|---------------------------------|
|---------------------------------|
|-9-------6---4---9---------------|
|-9---7---6---4-------------------|
|-7---7---4---2---7---------------|
|-----5---------------------------|

Guitar 1/2 [end with this]
|--------------------------------|
|--------------------------------|
|-2------------------------------|
|-2------------------------------|
|-0------------------------------|
|--------------------------------|

bridge:
Guitar 1
|--7---7---7---7---7---7---7---7---5---5---5---5---5---5---5---5-------|
|----5---5---5---5---5---5---5---5---5---5---5---5---5---5---5---5-----|
|----------------------------------------------------------------------|
|----------------------------------------------------------------------| x2
|----------------------------------------------------------------------|
|----------------------------------------------------------------------|

Guitar 2
|------------------------------------------------------|
|------------------------------------------------------|
|----9-8---9-8---9-8---9-8---9-8---9-8---9-8---9-8-----|
|--9-----9------9-----9----9-----9------9----9---------| x2
|--7-----7------0-----0--------------------------------|
|--------------------------9-----9------7----7---------|

lyrics:
pagmulat ng mata,
agad kong naalala
kagabi sinabi mong ayaw mo na
may mali ka bang nakita?
may mali bang nagawa?
bigla na lang naisip mong ayaw mo na

lahat ng gusto mo,
tamang sunod ako
nagtataka bakit biglang ayaw mo na
nabigla ko ng lubusan,
nang ako iyong aking iwanan
basta na lang naisip mong ayaw mo na

lumingon sandali lang
bago mo tuluyang iwan,
nais kong

sumigaw, palabas
at sasabihin sayo ang lahat
tumakbo, palayo
at iiwanan ang alaala mo

nanginginig, nalulungkot, nahihibang, at tulala
pagod na yata ang ngiti
nauubos din ang tuwa
nag-iisa, umiiyak, nahihirapang huminga
pagod na yata ang ngiti
nauubos din ang tuwa
nanginginig nalulungkot

lumingon sandali lang
bago mo tuluyang iwan
nais kong

sumigaw, palabas
at sasabihin sayo ang lahat
tumakbo, palayo
at iiwanan ang alaala mo

at kung hindi na babalik
sana sa pag-gising ay wala na ang nadaramang sakit
at kung hindi na babalik
pilit sasabihin na hindi ako nagkamali

sumigaw, palabas
at sasabihin sayo ang lahat
tumakbo, palayo
at iiwanan ang alaala mo

sumigaw, palabas
at iiwanan na ang alaala mo
tumakbo, palayo
at iiwanan ang alaala mo

|---------------------------|
|---------------------------|
|--thank you, hope you like it.--|
|---------------------------|
|---------------------------|
|---------------------------|
Tap to rate this tab
# A B C D E F G H I J K L M N O P Q R S T U V W X Y Z