Song name
# A B C D E F G H I J K L M N O P Q R S T U V W X Y Z

Kamikazee - Strong Artile tab

ok i know that you want this solo so 
enjoy!





to this very fast guys:

|--19----------------------19--15-16--15--18-1-516-20b--20----| 2x
|------18---------------18------------------------------------|
|----------17--------17---------------------------------------|
|--------------16-16------------------------------------------|
|-------------------------------------------------------------|
|-------------------------------------------------------------|


|-----18----18----20----20-------------20-19b b b-17---18---|
|--------17----19----19----16-17-18-19-------------------20-|
|-----------------------------------------------------------|
|-----------------------------------------------------------|
|-----------------------------------------------------------|
|-----------------------------------------------------------|
Tap to rate this tab
# A B C D E F G H I J K L M N O P Q R S T U V W X Y Z