Song name
# A B C D E F G H I J K L M N O P Q R S T U V W X Y Z

Kamikazee - Lalandiin tab

Lalandiin-Kamikazee

by f_sario@yahoo.com
09283150081
Intro-
GtrI&II
|-------------------------------|
|-------------------------------|
|-9--8--7--6--5--4--3~----------|
|-9--8--7--6--5--4--3~----------|
|-7--6--5--4--3--2--1~----------|
|-------------------------------|

GtrI GtrII(Em)
|--------------------------------------------|
|--------------------------------------------|
|-7-99---7-99------7-99-----7-99------99999--|
|-7-99---7-99------7-99-----7-99------99999--|
|-5-77---5-77------5-77-----5-77------77777--|
|--------------------------------------------|

GtrI GtrII (em G A A)
|----7--------------------------7------------------------|
|----8------3-5--555555---------8------3-5--555555-------|
|-7-99------4-6--666666------7-99------4-6--666666-------|
|-7-99-xxxx-5-7--777777------7-99-xxxx-5-7--777777-------|
|-5-77-xxxx-5-7--777777------5-77-xxxx-5-7--777777-------|
|------xxxx-3-5--555555-----------xxxx-3-5--555555-------|

|----7--------------------------7--------5~-|
|----8------3-5--555555---------8------3-5~-|
|-7-99------4-6--666666------7-99------4-6~-|
|-7-99-xxxx-5-7--777777------7-99-xxxx-5-7~-|
|-5-77-xxxx-5-7--777777------5-77-xxxx-5-7~-|
|------xxxx-3-5--555555-----------xxxx-3-5~-|


Verse-
GtrI
|--7~--------------------------------------------------------------------|
|-----8~-----------------------------------------------------------------|
|--------9~--------------------9~------7---6~----------------------------|
|------------------------------------------------------------------------|
|------------------------------------------------------------------------|
|------------------------------------------------------------------------|

GtrII
Strum Em then
|----------------------------|
|-(8)/10-7/8-----------------|
|-------------/9~------------|
|----------------------------|
|----------------------------|
|----------------------------|

GtrI
|------------------------------------------------------------------------|
|------------------------------------------------------------------------|
|------------------------------------------------------------------------|
|--------------5~-------------------------55-7b~-------------------------|
|-5-7-5h7~--77----------------5-7-5h7~--7--------------------------------|
|------------------------------------------------------------------------|

|--7~--------------------------------------------------------------------|
|-----8~-----------------------------------------------------------------|
|--------9~--------------------------------------------------------------|
|------------------------------------------------------------------------|
|------------------------------------------------------------------------|
|------------------------------------------------------------------------|

GtrII
Strum Em then
|----------------------------|
|-(8)/10-7/8-----------------|
|-------------/9~------------|
|----------------------------|
|----------------------------|
|----------------------------|
refrain
GtrI
GtrII Em
|--------------------------------------------|
|--------------------------------------------|
|-7-99---7-99------9-99-----9-99------9--9---|
|-7-99---7-99------9-99-----9-99------9--9---|
|-5-77---5-77------7-77-----7-77------7--7---|
|--------------------------------------------|

Chorus-
GtrI GtrII (em G A A)
|----7--------------------------7------------------------|
|----8------3-5--555555---------8------3-5--555555-------|
|-7-99------4-6--666666------7-99------4-6--666666-------|
|-7-99-xxxx-5-7--777777------7-99-xxxx-5-7--777777-------|2x
|-5-77-xxxx-5-7--777777------5-77-xxxx-5-7--777777-------|
|------xxxx-3-5--555555-----------xxxx-3-5--555555-------|


Verse-
|--7~--------------------------------------------------------------------|
|-----8~-----------------------------------------------------------------|
|--------9~--------------------9~------7---6~----------------------------|
|------------------------------------------------------------------------|
|------------------------------------------------------------------------|
|------------------------------------------------------------------------|

|------------------------------------------------------------------------|
|------------------------------------------------------------------------|
|------------------------------------------------------------------------|
|--------------5~-------------------------55-7b~-------------------------|
|-5-7-5h7~-777----------------5-7-5h7~--7--------------------------------|
|------------------------------------------------------------------------|

|--7---9---10---9---10-----------9--7----------------------------------|
|----8---88--8----8---8-----888-8------8-------------------------------|
|------------------------------------------9---------------------------|
|----------------------------------------------------------------------|
|----------------------------------------------------------------------|
|----------------------------------------------------------------------|
GtrII same as VerseI

Refrain-Chorus-
GtrI
|--------------------------------------------|
|--------------------------------------------|
|--------------------------------------------|
|--------------------------------------------|2x
|-777777777777777777777777-1010101012121212--|
|--------------------------------------------|

then
 GtrI
|--------------------------------------------|
|--------------------------------------------|
|--------------------------------------------|
|--------------------------------------------|2x
|-777777777777777777777777-1010101012121212--|
|--------------------------------------------|
GtrII Em G A

GtrI GtrII Em
|----------------------------|
|----------------------------|
|-9-99-----9-99------9~-xxxx-|
|-9-99-----9-99------9~-xxxx-|
|-7-77-----7-77------7~-xxxx-|
|----------------------------|

Chorus-

Verse-
GtrI

GtrII same as verse-
|-7~---7---9----7---9----------------------------------------------------|
|-8~-----8----8---8------8h10p8--------8h10p8----------------------------|
|-9~-----------------------------9-------------9-------------------------|
|-------------------------------------------------/5---------------------|
|------------------------------------------------------5-7-5h7-----------|
|------------------------------------------------------------------------|


|-7~------------7~-------------------------------------------------------|
|-8~------------8~-------8h10p8----------------8~--------8~--------------|
|-9~------------9~--------------9--------9-7-9-------9-7-9~--------------|
|------------------------------------------------------------------------|
|------------------------------------------------------------------------|
|------------------------------------------------------------------------|


|------------------------------------------------------------------------|
|--8h10p8h10p8h10p8h10p8h10p8h10p8h10p8h10p8h10p8h10p8h10p8h10p8h10p8----|
|------------------------------------------------------------------------|
|------------------------------------------------------------------------|
|------------------------------------------------------------------------|
|------------------------------------------------------------------------|


Tap to rate this tab
 
# A B C D E F G H I J K L M N O P Q R S T U V W X Y Z